Oops, an error
Loading. Please wait.

Come Together Bass Tab

version 4
55,234 views 198 this week
3 commentsread comments
1 2 3 4 5
accurate
x 15
add to favorites
launch autoscroll
font size
0
reset
guitar tuner
Tab Pro tools
  • play this tab
  • loop segment
  • change instrument
  • show fretboard
  • metronome
×
Best way to learn
"Come Together"
Autoscroll
slow
fast
+/-
esc
set tempo
stop
Contributor
Difficulty
novice
Come Together
The Beatles
Bass Tab

KEY:
h = hammer-on
/ = slide 


 Intro
G|----------10------|
D|--------------12/-|
A|-5-5-7/12---------|
E|------------------| x4

Verse
G|----------10------|
D|--------------12/-|      
A|-5-5-7/12---------|
E|------------------| x4

“Hair Down To His Knees” 
G|---------------|
D|------10-------|
A|-0-0-------12/-|
E|---------------| x2
  1 + 2 + 3 + 4 

G|----------10------|
D|--------------12/-|
A|-5-5-7/12---------|
E|------------------| x4

“Here Wore No Shoe Shine...” 
G|----------10------|
D|--------------12/-|
A|-5-5-7/12---------|
E|------------------| x4

“I Know you, you Know Me...” 
G|---------------|
D|------10-------|
A|-0-0-------12/-|
E|---------------| x2
  1 + 2 + 3 + 4 

Chorus “Come together...”
G|---------------------------|
D|---------------------------|
A|-2-2-2-2-2-2-0-0---------0-|
E|-----------------3-3-3-3---|

Verse
G|----------10------|
D|--------------12/-|
A|-5-5-7/12---------|
E|------------------| x4

“He Bag Production”
G|----------10------|
D|--------------12/-|
A|-5-5-7/12---------|
E|------------------| x4
“He Got Feet...”
G|---------------|
D|------10-------|
A|-0-0-------12/-|
E|---------------| x2
  1 + 2 + 3 + 4 

Chorus “Come together...”
G|---------------------------|
D|---------------------------|
A|-2-2-2-2-2-2-0-0---------0-|
E|-----------------3-3-3-3---|

Interlude (1:57) 
G|----------10------|
D|--------------12/-|
A|-5-5-7/12---------|
E|------------------| x6

G|---------------|
D|------10-------|
A|-0-0-------12/-|
E|---------------| x4
  1 + 2 + 3 + 4 

G|----------10------|-----10h12-10h12-10h12-12-10-|
D|-------------12/--|-----------------------------|
A|-5-5-7/12---------|-5-5-------------------------|
E|------------------|-----------------------------|

Verse “He Roller Coaster”
G|----------10------|
D|--------------12/-|
A|-5-5-7/12---------|
E|------------------| x4

“He Said One and One...”
G|---------------|
D|------10-------|
A|-0-0-------12/-|
E|---------------| x2
  1 + 2 + 3 + 4 

Chorus “Come together...”
G|---------------------------|
D|---------------------------|
A|-2-2-2-2-2-2-0-0---------0-|
E|-----------------3-3-3-3---|

G|----------10------|
D|--------------12/-|
A|-5-5-7/12---------|
E|------------------| x4

Ending:
G|----------10------|
D|--------------12/-|
A|-5-5-7/12---------|
E|------------------| 
^Repeat Riff until Ending”


comments
print report bad tab
3 comments total.
+1 reply
cannottell wrote on December 27 2007, 01:49 pm

tab]

intro/riff
G|---------------10--------|
D|-------------------------|
A|--------10/12---------12-|
E|--10-10-------
-----------|

it sounds good if you have a nice touch

-1 reply
Kalvinise wrote on April 9 2009, 09:29 pm

intro/riff
G|----------10-----|
D|-----7/12----12--|
A|-5-5-------------|
E|-----------------|

0 reply
BassTheAsian wrote on August 21 2009, 02:44 am

You people are stupid. It's the same note. Good job. (talking about the D)

I want to post or [tab]
guest
You may want to rate the tab now too:
select rating
Please do not post tabs as comments. Select "correction" instead!