Oops, an error
Loading. Please wait.
We have an official Come Together tab made by UG professional guitarists. Check out the tab »
×

Come Together chords

version 5
version 5

Whole song

Video

5,533 views 147 this week
1 commentread comment
1 2 3 4 5
x 7
add to favorites
×
Save as Personal and add changes to this tab that will be seen only by you. Learn more ›
×
You can save this tab as Personal to edit and correct it or add notes. All changes will be seen only by you. Learn more »
launch autoscroll
font size
0
reset
transpose
0
reset
simplify chords
display chords
guitar tuner
backing track
0:00
0:00
edit
Autoscroll
slow
fast
+/-
esc
set tempo
stop
About this tab version
An effective acoustic version, in simple dropped tuning, to achieve the main riffs without any big finger stretchs. Was this info helpful? Yes No
Strumming
There is no strumming pattern for this song yet. and get +5 IQ
Song: Come together
Artist: The Beatles
Composers: Lennon & McCartney
Album: Abbey Road

Tabbed by DJ ('DiddyD' on ultimateGuitar.com)
16th Dec 2016

NOTE:
This does not intend to represent the way The Beatles
played it, this is my own alternative interpretation
for acoustic guitar players. For the D and A riffs in
the verses mute the bridge with the side of the palm.

TUNING: D-A-D-G-B-E (Dropped D)
        De-tune the bottom E string down to D

Please IGNORE ANY POP-UP CHORD BOXES the website
might automatically suggest and use the typed shapes
shown below:
Dm7 * = 05056x    A5 = 777xxx       G5     = 555xxx
D5    = 000xxx    A6 = 797xxx       B5     = x244xx
D6    = 020xxx    A7 = 7-10-7xxx    A6sus2 = x044xx
Dm7   = 030xxx

An alternative to the A6sus2 you could use: A5 = x022xx

/ = Slide up
\ = Slide down
~ = Vibrato

************************************************************

[Intro]
                  Dm7 *                     Dm7 *
    Shoot me!                 Shoot me!
e |-------------------------|-------------------------|[x2]
B |----------------6~-------|----------------6~-------|
G |----------------5~-------|----------------5~-------|
D |----------------0--------|----------------0--------|
A |------------3--/5~---5\--|------------3--/5~---5\--|
D |---0---0-----------------|---0---0-----------------|


[Verse 1]
D5       D6       D5       D6      D5     D6           D5
   Here come old flat top, he come ...groo - vin' up slowly,
D6     D5      D6      D5     D6     D5     D6     D5
He got  ...Joo - Joo eyeball, he one   ...ho---ly roller,
D6  D5  A5       A6   A5   A6   A5  A6  A7   A6  A5
He got   ...hair  ...down    ...to his knee,
G5
Got to be a joker, he just do what he please!


[Break]
                  Dm7 *                     Dm7 *
    Shoot me!                 Shoot me!
e |-------------------------|-------------------------|[x2]
B |----------------6~-------|----------------6~-------|
G |----------------5~-------|----------------5~-------|
D |----------------0--------|----------------0--------|
A |------------3--/5~---5\--|------------3--/5~---5\--|
D |---0---0-----------------|---0---0-----------------|


[Verse 2]
D5     D6      D5         D6     D5     D6        D5
   He wear no shoe shine, he got ...toe - jam football,
D6     D5      D6      D5    D6       D5     D6   D5
He got  ...mon - key finger, he shoot ...Coca  - Cola,
D6  D5   A5     A6   A5   A6   A5      A6  A7   A6 A5
He say,  ..."I know you,   ...you know  ...me,  
G5
One thing I can tell you is, you got to be free!"


[Chorus]
            B5       A6sus2  G5    A5
Come to - gether,  ...right now...
                   Dm7 *                     Dm7 *
..over me!                    Shoot me!
 e |-------------------------|-------------------------|
 B |----------------6~-------|----------------6~-------|
 G |----------------5~-------|----------------5~-------|
 D |----------------0--------|----------------0--------|
 A |------------3--/5~---5\--|------------3--/5~---5\--|
 D |---0---0-----------------|---0---0-----------------|

                  Dm7 *                     Dm7 *
    Shoot me!                 Shoot me!
e |-------------------------|-------------------------|
B |----------------6~-------|----------------6~-------|
G |----------------5~-------|----------------5~-------|
D |----------------0--------|----------------0--------|
A |------------3--/5~---5\--|------------3--/5~---5\--|
D |---0---0-----------------|---0---0-----------------|


[Verse 3]
D5     D6          D5     D6     D5      D6    Dm7
    He bag pro - duction, he got  ...wal - rus gum - boot,
D6     D5    D6       D5      D6     D5     D6       Dm7
He got  ...O  - no sideboard, he one ...spi  - nal cracker,
D6  D5  A5       A6    A5   A6        A5  A6  A7    A6 A5
He got   ...feet   ...down   ...be - low his knee,
 G5
Hold you in his armchair, you can feel his disease!


[Chorus]
            B5       A6sus2  G5    A5
Come to - gether,  ...right now...
                   Dm7 *                     Dm7 *
..over me!                     Shoot me!          Right!
 e |-------------------------|-------------------------|
 B |----------------6~-------|----------------6~-------|
 G |----------------5~-------|----------------5~-------|
 D |----------------0--------|----------------0--------|
 A |------------3--/5~---5\--|------------3--/5~---5\--|
 D |---0---0-----------------|---0---0-----------------|


[Break]
D5     D6     D5     D6     D5     D6     D5     Dm7  D6
   Hah,   hah,   hah,   hah!   Hah,   hah,   hah,    hah!

D5     D6    D5    D6    D5    D6    D5    Dm7    D6 D5
   Hah,  hah,  hah,  hah!  Hah,  hah,  hah,   hah,  come!

A5   A6    A5   A6     A5   A6   A5  A6  A7  A6 A5
        Oh!                     Come!

A5   A6    A5   A6     A5   A6   A5  A6  A7  A6 A5
          Come!                 Come!

   (Dm7)
e |-------------------|-------------------------|
B |-------------------|-------------------------|
G |-------------------|-------------------------|
D |-------3-----------|-------------------------|
A |-----5---2---2-h3--|----2--0-h2-p0-----------|
D |---0---------------|--0-------------3-h5-p3--|


[Verse 4]
D5   D6     D5    Dm7 D6   D5      D6      D5
He roller coaster, he got   ...ear  - ly warning,
Dm7 D6   D5     D6    D5    Dm7 D6   D5    D6      D5
 He got  ...Mud  - dy water, he one  ...Mo  - jo filter,
Dm7 D6   A5      A6     A5   A6     A5  A6  A7     A6 A5
 He say, ..."One ...and one  ...and one is three!"
G5
Got to be good looking, 'cause he's so hard to see!


[Chorus]
            B5       A6sus2  G5    A5
Come to - gether,  ...right now...
                   Dm7 *                     Dm7 *
..over me!                    Shoot me!
 e |-------------------------|-------------------------|
 B |----------------6~-------|----------------6~-------|
 G |----------------5~-------|----------------5~-------|
 D |----------------0--------|----------------0--------|
 A |------------3--/5~---5\--|------------3--/5~---5\--|
 D |---0---0-----------------|---0---0-----------------|

                  Dm7 *                     Dm7 *
    Shoot me!                 Shoot me!           Oh!
e |-------------------------|-------------------------|
B |----------------6~-------|----------------6~-------|
G |----------------5~-------|----------------5~-------|
D |----------------0--------|----------------0--------|
A |------------3--/5~---5\--|------------3--/5~---5\--|
D |---0---0-----------------|---0---0-----------------|


[Coda]
   D5  D6  D5  D6      D5  D6  Dm7 D6
|  /_/ /_/ /_/ /_/  |  /_/ /_/ /_/ /_/  |

    D5  D6        D5   D6    D5 D6    Dm7  D6
||:    Come to - gether!              Yeah!   :||[x6]

D5   D6        D5     D6    D5 D6   Dm7  D6
    Come to - gether!              Yeah-----!

D5   D6        D5     D6    D5 D6   Dm7  D6
     Auh-----------------------------------!

    D5  D6        D5     D6  D5 D6  Dm7  D6
||:    Come to - gether!            Yeah-----!:||[Repeat]


[Suggestion for ending]
                  Dm7 *                     Dm7 *
e |-------------------------|----------------------||
B |----------------6~-------|----------------6~----||
G |----------------5~-------|----------------5~----||
D |----------------0--------|----------------0-----||
A |------------3--/5~---5\--|------------3--/5~----||
D |---0---0-----------------|---0---0--------------||

            
            
Suggest correction
Creating personal tab
Creating personal tab
You can edit any tab online and save it as your Personal.

You can edit, replace or remove any tab part or add personal notes – all changes will be seen only by you.

Personal tabs can be accessed anytime from any device, even offline.
Learn more »
comments
print report bad tab
1 comment total.
+1 reply
52dedhed 22 Dec 20, 2016 10:58 PM

Very complete.

guest
You may want to rate the tab now too:
select rating
Wanna post a correction for this tab? Suggest correction