Oops, an error
Loading. Please wait.

Come Together Bass Tab

version 8
1,281 views 6 this week
no commentswrite comment
1 2 3 4 5
excellent!
x 1
add to favorites
launch autoscroll
font size
0
reset
guitar tuner
Tab Pro tools
  • play this tab
  • loop segment
  • change instrument
  • show fretboard
  • metronome
×
Best way to learn
"Come Together"
Autoscroll
slow
fast
+/-
esc
set tempo
stop
Contributor
---------------------------------------------------------------------------------
                                         Come Together - The Beatles
---------------------------------------------------------------------------------
Tabbed by: Bguns 2.0
E-mail: bguns2.0@gmail

Tuning: E A D G

This tab is the result of looking at many tabs and piecing together the parts
that I know are right and throwing out parts that are wrong.  This should all
be right, I sounds perfect when I've played it, the only thing that could be
wrong is the timing, but that shouldn't be a problem if you've heard this 
song before.

  Main Riff
G|----------------10--------------------|
D|-------------------------12\----------|
A|---------10h12------------------------|
E|--10-10-------------------------------| x8

  Bridge                               x2
G|--------------------------------------|---------------|-----------------|
D|----------------10--------------------|---------------|-----------------|
A|---0-0-------------------12\----------|-10------------|-x---------------|
E|--------------------------------------|---------------|-----------------|

 Main Riff x8

 Bridge

  Chorus
G|--------------------------------------------|
D|--------------------------------------------|
A|---14-14-14-14-14-14-12-12-------------12---|
E|---------------------------15-15-15-15------|

 Main Riff 3x

  Almost Main Riff
G|----------------10h12-10h12----------------|
D|------------------------------12\----------|
A|---------10h12-----------------------------|
E|--10-10------------------------------------|

 Main Riff 4x

 Bridge

 Chorus

 Main Riff

  Almost Main Riff (Again)
G|----------------10------10h12-----|
D|-----------------------------12---|
A|---------10h12--------------------|
E|--10-10---------------------------|


 Main Riff 9x

  Almost Main Riff (Once Again)
G|----------------10---10h12h10-----|
D|-----------------------------12\--|
A|---------10h12--------------------|
E|--10-10---------------------------|

 Main Riff 4x

 Bridge

 Chorus

 Main Riff 3x

  Almost Main Riff (For the Third Time)
G|----------------10-------10h12h10-10h12h10-----|
D|------------------------------------------12---|
A|---------10h12---------------------------------|
E|--10-10----------------------------------------|

  Play this for a long time      Fade out around 18-20 times
G|-----------------------------|
D|-----------------------------|
A|-----------------------------|
E|---10-10-10-10-10-10-10-10---| x24 or so

THE END

| \  slide down
| h  hammer-on
| x  mute note
=================================================================================
comments
We did not receive enough feedback on this tab! Please rate:
print report bad tab
1 2 3 4 5
I want to post or [tab]
guest
You may want to rate the tab now too:
select rating
Please do not post tabs as comments. Select "correction" instead!