Oops, an error
Loading. Please wait.

Day Tripper Tab

version 2
version 2
1,318,080 views 1,869 this week
83 commentsread comments
1 2 3 4 5
excellent!
x 349
add to favorites
launch autoscroll
font size
0
reset
how to read this tab
guitar tuner
Tab Pro tools
  • play this tab
  • loop segment
  • change instrument
  • show fretboard
  • metronome
×
Best way to learn
"Day Tripper"
Autoscroll
slow
fast
+/-
esc
set tempo
stop
(chords used)

F#  A   G#  C   B
2   0   4   4   2
2   2   4   6   4
3   2   5   6   4
4   2   6   6   4
4   0   6   4   2
2   0   4   4   2


[Main riff]

e|-----------------------------|
b|-----------------------------|
g|-----------------------------|
d|-------------2-0---4----0-2--|
a|----------2------2----2------|
e|--0--3-4---------------------|


[Verse]

E|---------------------------------|
B|---------------------------------|
G|-------------2-0----4----0-2-----|
D|----------2------2----2----------|
A|--0--3-4-------------------------|
E|---------------------------------|


[Chorus]

           F#  
She was a daaa-y tripper, one way ticket yeah!
            A     G#
It took me so-o long
         C#               B  
to find out, and i found out.

E|-------------------------------------------------|
B|----------------------2--------------------------|
G|-4-----------4--2-----------2--4-----------------|x3
D|-4--0--1--4--------4-----4-----------------------|
A|-2-----------------------------------------------|
E|-------------------------------------------------|


[Solo]

E|--------------------------5b------------|
B|--------3------3---5h-7--------7---5----|
G|-4---4-----4----------------------------|
D|----------------------------------------|
A|----------------------------------------|
E|----------------------------------------|

E|-----------10-------10---12b14b12---10---------------|
B|-12~--12~-------12-----------------------12----------|
G|-----------------------------------------------------|
D|-----------------------------------------------------|
A|-----------------------------------------------------|
E|-----------------------------------------------------|


[Verse 3]

e|------------------------------|
b|------------------------------|
g|------------------------------|
d|--------------2-0----4----0-2-|
a|-----------2-------2----2-----|
e|--0--3h-4---------------------|

E|------------------------------|
B|------------------------------|
G|--------------2-0-----4----0-2|
D|-----------2-------2-----2----|
A|--0--3h-4---------------------|
E|------------------------------|


[Outro]

e|-----------------------------|
b|-----------------------------|
g|-----------------------------|
d|-------------2-0---4----0-2--|
a|----------2------2----2------|
e|--0--3-4---------------------|


***********************************
| h   Hummer-on
| b   Bend
***********************************
comments
print report bad tab
83 comments total. Showing first comments.
+1 reply
Fender_squier wrote on February 16 2002, 12:00 am

Perhaps with all the chords and full lirycs could be better

+2 reply
atarimar182 wrote on February 18 2002, 12:00 am

COuld be better, with the lyrics, dude. But no complaints from me. I just wanted the solo to play in interlude, so i'm all smiles.

+15 reply
marcoscunha wrote on February 20 2002, 12:00 am

He dude, the tabs are alright, but I have a correction:
In the chorus the C must be a C#! and the tabs for a C# are: x46664. the 'normal' C is: x35553...
But anyways, you tabbed is right.

I want to post or [tab]
guest
You may want to rate the tab now too:
select rating
Please do not post tabs as comments. Select "correction" instead!