Oops, an error
Loading. Please wait.
We have an official Day Tripper tab made by UG professional guitarists. Check out the tab »
×
73,203 views 1,233 this week
1 commentread comment
1 2 3 4 5
x 12
add to favorites
×
Save as Personal and add changes to this tab that will be seen only by you. Learn more ›
×
You can save this tab as Personal to edit and correct it or add notes. All changes will be seen only by you. Learn more »
launch autoscroll
font size
0
reset
how to read this tab
guitar tuner
backing track
0:00
0:00
edit
Autoscroll
slow
fast
+/-
esc
set tempo
stop
Artist: The Beatles
Song: Day Tripper
Tuning: Standard Tuning (EADGBE)
Tabber: Myles Garvey (mgkilla88@hotmail.com)
Symbols:
X - Rest
h - Hammer On
~ - Vibrato
b - Bend


Intro

E|---------------------------|---------------------------|
B|---------------------------|---------------------------|
G|---------------------------|---------------------------|
D|------------2-O----4----O-2|------------2-O----4----O-2|
A|----------2------2----2----|----------2------2----2----|
E|---O--3-4------------------|---O--3-4------------------|

E|---------------------------|---------------------------|
B|---------------------------|---------------------------|
G|---------------------------|---------------------------|
D|------------2-O----4----O-2|------------2-O----4----O-2|
A|----------2------2----2----|----------2------2----2----|
E|---O--3-4------------------|---O--3-4------------------|

E|---------------------------|
B|---------------------------|
G|---------------------------|
D|------------2-O----4----O-2|
A|----------2------2----2----|
E|---O--3-4------------------|

Verse 1

E|---------------------------|---------------------------|
B|---------------------------|---------------------------|
G|---------------------------|---------------------------|
D|------------2-O----4----O-2|------------2-O----4----O-2|
A|----------2------2----2----|----------2------2----2----|
E|---O--3-4------------------|---O--3-4------------------|
    Got a good reason         for taking the easy way out

E|---------------------------|---------------------------|
B|---------------------------|---------------------------|
G|------------2-O----4----O-2|---------------------------|
D|----------2------2----2----|------------2-O----4----O-2|
A|---O--3-4------------------|----------2------2----2----|
E|---------------------------|---O--3-4------------------|
    Got a good reason           for taking the easy way out now

Chorus
        F#                       
E|---X--2--------------------|---X-----------------------|
B|---X--2--------------------|---X-----------------------|
G|---X--3--------------------|---X-----------------------|
D|---X--4--------------------|---X-----------------------|
A|---X-----------------------|---X-----------------------|
E|---X-----------------------|---X-----------------------|
   She was a day tripper,       a one way ticket yea

             A                   G#        C#
E|---X-----------------------|---------------------------|
B|---X-------1---------------|---------------------------|
G|---x-------1---------------|------------6--------------|
D|---X-------1---------------|---6--------6--------------|
A|---X-------0---------------|---6--------4--------------|
E|---X-----------------------|---4-----------------------|
     It took me so long             to find out, 

        B   
E|---X--2--------------------|
B|---X--4--------------------|
G|---X--4--------------------|
D|---X--0--------------------|
A|---X-----------------------|
E|---X-----------------------|
    and I found out

Verse 2

E|---------------------------|---------------------------|
B|---------------------------|---------------------------|
G|---------------------------|---------------------------|
D|------------2-O----4----O-2|------------2-O----4----O-2|
A|----------2------2----2----|----------2------2----2----|
E|---O--3-4------------------|---O--3-4------------------|

E|---------------------------|---------------------------|
B|---------------------------|---------------------------|
G|---------------------------|---------------------------|
D|------------2-O----4----O-2|------------2-O----4----O-2|
A|----------2------2----2----|----------2------2----2----|
E|---O--3-4------------------|---O--3-4------------------|
     She's a big teaser,        she took me half the way there         

E|---------------------------|---------------------------|
B|---------------------------|---------------------------|
G|------------2-O----4----O-2|---------------------------|
D|----------2------2----2----|------------2-O----4----O-2|
A|---O--3-4------------------|----------2------2----2----|
E|---------------------------|---O--3-4------------------|
    She's a big teaser,        she took me half the way there now

Chorus

        F#                       
E|---X--2--------------------|---X-----------------------|
B|---X--2--------------------|---X-----------------------|
G|---X--3--------------------|---X-----------------------|
D|---X--4--------------------|---X-----------------------|
A|---X-----------------------|---X-----------------------|
E|---X-----------------------|---X-----------------------|
   She was a day tripper,       a one way ticket yea

             A                   G#        C#
E|---X-----------------------|---------------------------|
B|---X-------1---------------|---------------------------|
G|---x-------1---------------|------------6--------------|
D|---X-------1---------------|---6--------6--------------|
A|---X-------0---------------|---6--------4--------------|
E|---X-----------------------|---4-----------------------|
     It took me so long             to find out, 

        B   
E|---X--2--------------------|
B|---X--4--------------------|
G|---X--4--------------------|
D|---X--0--------------------|
A|---X-----------------------|
E|---X-----------------------|
    and I found out


Pre-Solo

E|--------------------------|---------|
B|--------------------2-----|---------|
G|---4--------4--2----------|---2-----|
D|---4--0-1-4-------4----4--|---------|
A|---2----------------------|---------|
E|--------------------------|---------|

E|--------------------------|---------|
B|--------------------2-----|---------|
G|---4--------4--2----------|---2-----|
D|---4--0-1-4-------4----4--|---------|
A|---2----------------------|---------|
E|--------------------------|---------|

E|--------------------------|---------|
B|--------------------2-----|---------|
G|---4--------4--2----------|---2-----|
D|---4--0-1-4-------4----4--|---------|
A|---2----------------------|---------|
E|--------------------------|---------|

Solo
E|---------------------------|---5b----------------------|
B|----------3------3---5h-7--|---------7---5-------------|
G|---4---4-----4-------------|---------------------------|
D|---------------------------|---------------------------|
A|---------------------------|---------------------------|
E|---------------------------|---------------------------|

E|-------------10--------10--|---12b14b12---10-----------|
B|---12~--12~--------12------|-------------------12------|
G|---------------------------|---------------------------|
D|---------------------------|---------------------------|
A|---------------------------|---------------------------|
E|---------------------------|---------------------------|

Verse 3

E|---------------------------|---------------------------|
B|---------------------------|---------------------------|
G|---------------------------|---------------------------|
D|------------2-O----4----O-2|------------2-O----4----O-2|
A|----------2------2----2----|----------2------2----2----|
E|---O--3h-4-----------------|---O--3h-4-----------------|

E|---------------------------|---------------------------|
B|---------------------------|---------------------------|
G|---------------------------|---------------------------|
D|------------2-O----4----O-2|------------2-O----4----O-2|
A|----------2------2----2----|----------2------2----2----|
E|---O--3h-4-----------------|---O--3h-4-----------------|
    Tried to please her,      she only played one night stands 
E|---------------------------|---------------------------|
B|---------------------------|---------------------------|
G|---------------------------|------------2-O----4----O-2|
D|------------2-O----4----O-2|----------2------2----2----|
A|----------2------2----2----|---O--3h-4-----------------|
E|---O--3h-4-----------------|---------------------------|
    Tried to please her,      she only played one night stands now

Chorus

        F#                       
E|---X--2--------------------|---X-----------------------|
B|---X--2--------------------|---X-----------------------|
G|---X--3--------------------|---X-----------------------|
D|---X--4--------------------|---X-----------------------|
A|---X-----------------------|---X-----------------------|
E|---X-----------------------|---X-----------------------|
   She was a day tripper,       a Sunday driver yea

             A                   G#        C#
E|---X-----------------------|---------------------------|
B|---X-------1---------------|---------------------------|
G|---x-------1---------------|------------6--------------|
D|---X-------1---------------|---6--------6--------------|
A|---X-------0---------------|---6--------4--------------|
E|---X-----------------------|---4-----------------------|
     It took me so long             to find out, 

        B   
E|---X--2--------------------|
B|---X--4--------------------|
G|---X--4--------------------|
D|---X--0--------------------|
A|---X-----------------------|
E|---X-----------------------|
    and I found out

Ending

E|---------------------------|---------------------------|
B|---------------------------|---------------------------|
G|---------------------------|---------------------------|
D|------------2-O----4----O-2|------------2-O----4----O-2|
A|----------2------2----2----|----------2------2----2----|
E|---O--3-4------------------|---O--3-4------------------|

E|---------------------------|---------------------------|
B|---------------------------|---------------------------|
G|---------------------------|---------------------------|
D|------------2-O----4----O-2|------------2-O----4----O-2|
A|----------2------2----2----|----------2------2----2----|
E|---O--3-4------------------|---O--3-4------------------|

E|---------------------------|---------------------------|
B|---------------------------|---------------------------|
G|---------------------------|---------------------------|
D|------------2-O----4----O-2|------------2-O----4----O-2|
A|----------2------2----2----|----------2------2----2----|
E|---O--3-4------------------|---O--3-4------------------|
        Day tripper                 Day tripper yea
E|---------------------------|---------------------------|
B|---------------------------|---------------------------|
G|---------------------------|---------------------------|
D|------------2-O----4----O-2|------------2-O----4----O-2| (Fade Out on the last measure)
A|----------2------2----2----|----------2------2----2----|
E|---O--3-4------------------|---O--3-4------------------|
        Day tripper                 Day tripper yea

Order Of Song
Intro
Verse 1
Chorus
Verse 2
Chorus
Pre-Solo
Solo
Verse 3
Chorus
Ending

Chords Used:

    F#      A     G#     C#      B  
E|---2--|------|------|------|---2--|
B|---2--|---1--|------|------|---4--|
G|---3--|---1--|------|---6--|---4--|
D|---4--|---1--|---6--|---6--|---0--|
A|------|------|---6--|---4--|------|
E|------|------|---4--|------|------|

            
            
Suggest correction
Creating personal tab
Creating personal tab
You can edit any tab online and save it as your Personal.

You can edit, replace or remove any tab part or add personal notes – all changes will be seen only by you.

Personal tabs can be accessed anytime from any device, even offline.
Learn more »
comments
print report bad tab
1 comment total.
0 reply
theoddmenout 2,184 Apr 22, 2005 08:00 PM

Looks good, but it seems like you stole the solo from v.1, cuz they're both slightly wrong in the exactly same way

guest
Wanna post a correction for this tab? Suggest correction