Oops, an error
Loading. Please wait.

Day Tripper Bass Tab

version 3
version 3

Whole song

58,664 views 15 this week
1 commentread comment
1 2 3 4 5
x 11
add to favorites
launch autoscroll
font size
0
reset
guitar tuner
×
Best way to learn
"Day Tripper"
Autoscroll
slow
fast
+/-
esc
set tempo
stop
this tab was taken from a guitar tab as the bass basically parallels the guitar
on the verse, but differs on the chorus. take care to differentiate the verse
note (i.e do not string them together) as the bass will sound out of sync and
cause errors when playing.

[Verse]
G--------------------------|
D---------2-0---4---0-2----|
A-------2-----2---2--------|
E-0-3-4--------------------|

[VERSE VARIATION]
G---------2-0---4---0-2----|
D-------2-----2---2--------|
A-0-3-4--------------------|
E--------------------------|

[Chorus]
(first part to be played only once)
G---------------------------------|----------------|
D---------------------------------|--------4-4-----|
A---------------------------------|-----2h4----4p2-|
E-2-2-2-2-2-2-2-2-2-2-2-2-2-2-2-2-|-2-2------------|

PLAYED ON GUITAR SOLO
G---------------------------------------|
D---------------------------------------|
A-2-2-2-2-2-2-2-2-0-0-0-0-0-0-0---------|
E---------------------------------------|

enjoy playing this song, as it is one of the beatles greatest and a joy to play.
thanks ppl,
Mikey
Suggest correction
comments
print report bad tab
1 comment total.
0 reply
hakonfl1974 10 Aug 27, 2015 04:53 AM

The main riff is played one octave higher when in E (VERSE) on the original recording. Common mistake for this tune. You can of course play it like this, it will work just fine.

guest
You may want to rate the tab now too:
select rating
Wanna post a correction for this tab? Suggest correction