Oops, an error
Loading. Please wait.

Day Tripper Ukulele Chords

version 4
version 4

Whole song

  • First real ukulele version, not just a guitar shee... Show more
  • Requires linear tuning (low G) / Includes riff and... Show more
16 views 1 this week
no commentswrite comment
1 2 3 4 5
3 more votes to show rating
add to favorites
launch autoscroll
font size
0
reset
transpose
0
reset
display chords
guitar tuner
Autoscroll
slow
fast
+/-
esc
set tempo
stop
Help us to improve Ultimate-Guitar.com Take our survey!
×
Author
Difficulty
intermediate
About this tab version
Requires linear tuning (low G) / Includes riff and solo section tabbed for the ukulele / E-chord riff is an octave up due to the limitations of the ukulele. Was this info helpful? Yes No
>>>>> READ BEFORE ATTEMPTING TO PLAY <<<<<

This version requires your ukulele to have linear tuning instead of re-entrant tuning.
This means the first string 'g' will be tuned a whole octave lower 'G'. 
If you don't have linear tuning, then you will require a new G string or a new string set.
I understand a lot of you might not have the need or the money for new strings, 
so this tab will still be practicable with re-entrant tuning until you can obtain the right 
strings, it just wont sound right. 
 
^^^^^ READ BEFORE ATTEMPTING TO PLAY ^^^^^

Chords used (Chorus only):

   F#   A    G#   C#   B
A|-1----4----3----4----2-|
E|-2----5----4----4----2-|
C|-1----4----3----5----3-| 
G|-3----6----5----6----4-|


[Intro]

A|-------------7-5-----9-----5h7-|
E|-----------7-------7-----7-----|
C|-------7h8---------------------| x5
G|-9-----------------------------|

[Verse]

A|-------------7-5-----9-----5h7-|
E|-----------7-------7-----7-----|
C|-------7h8---------------------| x2
G|-9-----------------------------|

A|---------------------2---------|
E|-------------5-3-----------3h5-|
C|-----------4-------4-----4-----| 
G|-2-----5h6---------------------|

A|-------------7-5-----9-----5h7-|
E|-----------7-------7-----7-----|
C|-------7h8---------------------| 
G|-9-----------------------------|

[Chorus]

          F#             F#
She was a day tripper, a one way ticket yeah
           A  G#           C#               B
It took me so long to find out, and I found out

A|-------------7-5-----9-----5h7-|
E|-----------7-------7-----7-----|
C|-------7h8---------------------| x2 
G|-9-----------------------------|

[Verse]

A|-------------7-5-----9-----5h7-|
E|-----------7-------7-----7-----|
C|-------7h8---------------------| x2
G|-9-----------------------------|

A|---------------------2---------|
E|-------------5-3-----------3h5-|
C|-----------4-------4-----4-----| 
G|-2-----5h6---------------------|

A|-------------7-5-----9-----5h7-|
E|-----------7-------7-----7-----|
C|-------7h8---------------------| 
G|-9-----------------------------|

[Chorus]

          F#             F#
She was a day tripper, a one way ticket yeah
           A  G#           C#               B
It took me so long to find out, and I found out

[Instrumental Section]

A|---------------------4---------|
E|-------------7-5-----------5h7-|
C|-----------6-------6-----6-----| x3
G|-4-----7h8---------------------|

A|-------------------------------|
E|-------------------5^----------|
C|---------2---2-4h6-----6-4-----| 
G|-4---4-----4-------------------|

A|---------5---5--7b9b7--5-------|
E|-7---7-----7-------------7-----|
C|-------------------------------| 
G|-------------------------------|

A|-----------------6-6-6-6-6-6-6-6-|
E|-7-7-7-7-7-7-7-7-7-7-7-7-7-7-7-7-|
C|-6-6-6-6-6-6-6-6-6-6-6-6-6-6-6-6-| 
G|---------------------------------|

A|-------------7-5-----9-----5h7-|
E|-----------7-------7-----7-----|
C|-------7h8---------------------| x2
G|-9-----------------------------|

[Verse]

A|-------------7-5-----9-----5h7-|
E|-----------7-------7-----7-----|
C|-------7h8---------------------| x2
G|-9-----------------------------|

A|---------------------2---------|
E|-------------5-3-----------3h5-|
C|-----------4-------4-----4-----| 
G|-2-----5h6---------------------|

A|-------------7-5-----9-----5h7-|
E|-----------7-------7-----7-----|
C|-------7h8---------------------| 
G|-9-----------------------------|

[Chorus]

          F#             F#
She was a day tripper, a Sunday driver yeah
           A  G#           C#               B
It took me so long to find out, and I found out

[Outro]

A|-------------7-5-----9-----5h7-|
E|-----------7-------7-----7-----|
C|-------7h8---------------------| x4 
G|-9-----------------------------|

A|-------------7-5-----9-----5h7-|
E|-----------7-------7-----7-----|
C|-------7h8---------------------| Repeat and fade out
G|-9-----------------------------|



Suggest correction
Give kudos to tab author, rate the tab!
1 2 3 4 5
comments
print report bad tab
guest
You may want to rate the tab now too:
select rating
Wanna post a correction for this tab? Suggest correction