Oops, an error
Loading. Please wait.

Day Tripper Bass Tab

version 5
version 5
25,319 views 21 this week
no commentswrite comment
1 2 3 4 5
accurate
x 4
add to favorites
launch autoscroll
font size
0
reset
guitar tuner
Tab Pro tools
  • play this tab
  • loop segment
  • change instrument
  • show fretboard
  • metronome
×
Best way to learn
"Day Tripper"
Autoscroll
slow
fast
+/-
esc
set tempo
stop
Contributor
Difficulty
intermediate
----------------------------------------------------------------------------
			     Day Tripper - Beatles
----------------------------------------------------------------------------

Tabbed By : Coy D Coy
e-mail: dragon.alchemy@hotmail.com

Tuning: Standard

Intro

Rest until after one guitar riff

G|------------9-7---11---7-9-----------------------------------------------|
D|----------9-----9----9-------------x4------------------------------------|
A|-7--10-11----------------------------------------------------------------|
E|-------------------------------------------------------------------------|

Verse

G|------------9-7---11---7-9---------------9-7---11---7-9------------------|
D|----------9-----9----9-----------------9-----9----9----------------------|
A|-7--10-11---------------------7--10-11-----------------------------------|
E|-------------------------------------------------------------------------|

G|-----------------------------------------9-7---11---7-9------------------|
D|----------7-5---9---5-7----------------9-----9----9----------------------|
A|--------7-----7---7-----------7--10-11-----------------------------------|
E|-5--8-9------------------------------------------------------------------|

Chorus

G|---------9--8-11------------------------------------------------------------|
D|----8-11-----------x4--------5--4-7---------4--1-6----3--6-6------1--4-4----|
A|-9-----------------------4-7------------3-6---------4--------4--2--------2--|
E|----------------------5--------------4--------------------------------------|

Bridge
   q  q  q  q  q  q  q  q  q  q  q  q  q  q  q  q  ee  ee  ee  ee
G|-------------------------------------------------------------------------|
D|-9--9--9--9--9--9--9--9--9--9--9--9--9--9--9--9--99--99--99--99----------|
A|-------------------------------------------------------------------------|
E|-------------------------------------------------------------------------|

Solo
   ee q ee q ee q ee q ee q ee q ee q ee e e e e e e e e e 
G|-------------------------------------------------------------------------|
D|-99-9-99-9-99-9-99-9-99-9-99-9-99-9-99-9-9-9-9-9-9-9-9-9-----------------|
A|-------------------------------------------------------------------------|
E|-------------------------------------------------------------------------|

Outro

Rest until after one guitar riff.

G|------------9-7---11---7-9-----------------------------------------------|
D|----------9-----9----9-------------x4------------------------------------|
A|-7--10-11----------------------------------------------------------------|
E|-------------------------------------------------------------------------|


Song Layout

Intro
Verse
Chorus
Verse
Chorus
Bridge
solo
Verse
Chorus
Outro

There are a few different ways of playing the Chorus but this is the way I 
always play it. Let me know what you think.





============================================================================
| q  quarter notes
| e  eighth notes
| /  slide up
| \  slide down
| h  hammer-on
| p  pull-off
| ~  vibrato
| +  harmonic
| x  Mute note
============================================================================
comments
print report bad tab
I want to post or [tab]
guest
You may want to rate the tab now too:
select rating
Please do not post tabs as comments. Select "correction" instead!