Oops, an error
Loading. Please wait.

Devil In Her Heart Bass Tab

version 1
version 1

Whole song

Interactive

1,164 views 6 this week
no commentswrite comment
1 2 3 4 5
excellent!
x 1
add to favorites
launch autoscroll
font size
0
reset
guitar tuner
Tab Pro tools
  • play this tab
  • loop segment
  • change instrument
  • show fretboard
  • metronome
Autoscroll
slow
fast
+/-
esc
set tempo
stop
Contributor
Title       : Devil In Her Heart
Artist      : The Beatles
Album       : With The Beatles
Tabbed By   : Ken Robertson
-------------------------------------------------

G------------------------------|
D---7-7-7---------5-5------4-5-|
A----------5-5-5------5--5-----|
E------------------------------|

G---------------------------------------|
D---7-7-7-----------4-5-5-----4-5-5---5-|
A---------5-5-5-5-7-------5-5-------5---|
E---------------------------------------|

G---------------------------------|---------------|
D---7-7-7---4-7-----4-5-5-----4-5-|-5-5--7-7--9-9-|
A---------5-----5-7-------5-5-----|---------------|
E---------------------------------|---------------|

G---------------------------------------------------|
D-------5-5-------3------5-5-----4-5--5-5--7-7--9-9-|
A---3-3-----2-3-3---3-5------5-5--------------------|
E---------------------------------------------------|

G------------------------------------|
D-----5-5---5-5--7-7---7-----7-7-----|
A---3-----3----------7---5-5-----4-5-|
E------------------------------------|

G---------------------------------------|
D---7-7-7---4-7-----4-5-5-----4-5-5---5-|
A---------5-----5-7-------5-5-------5---|
E---------------------------------------|

G----------------------------------------------------|
D---7-----------4-7-----4-5-5-----4-5--5-5--7-7--9-9-|
A-----4-7-4-7-5-----5-7-------5-5--------------------|
E----------------------------------------------------|

G--------------------------------------------|
D-----3-3----3-3----5-5---4-5--5-5--7-7--9-9-|
A---3------3------3-----5--------------------|
E--------------------------------------------|

G------------------------------------|
D-----5-5---5-5--7-7---7-----7-7-----|
A---3-----3----------7---5-5-----4-5-|
E------------------------------------|


G-------------7-------------------------|
D---7-7-------------4-5-5-----4-5-5---5-|
A---------5-5---5-7-------5-5-------5---|
E---------------------------------------|

G-------------7----------------------------------|
D---7-7-7-----------4-5-5-----4-5--5-5--7-7--9-9-|
A---------5-5---5-7-------5-5--------------------|
E------------------------------------------------|

G---------------------------------------------------|
D-------5-5-------5------5-5-----4-5--5-5--7-7--9-9-|
A---3-3-----2-3-3---3-5------5-5--------------------|
E---------------------------------------------------|

G----------------------------------------|
D-----5-5----5-5----7-7---7------7-7-----|
A---3------3-----3------7----5-5-----4-5-|
E----------------------------------------|

G-------------7--------------------------|
D---7-7-7------------4-5-5-----4-5-5---5-|
A---------5-5---5-7--------5-5-------5---|
E----------------------------------------|

G-------------7-------------------------|
D---7-7-7------------4-5-5------5-5---5-|
A---------5-5---5-7--------5-5------5---|
E---------------------------------------|

G-----------------------------------|
D---7-7-7-----7---5-5-----5-5-----5-|
A---------5-5---5-----5-5-----5-5---|
E-----------------------------------|

G--------------------------------------|
D---7-7---7---4-7-----4-5-5------5---5-|
A-------7---5-----5-7-------5-5----5---|
E--------------------------------------|
comments
We did not receive enough feedback on this tab! Please rate:
print report bad tab
1 2 3 4 5
I want to post or [tab]
guest
You may want to rate the tab now too:
select rating
Please do not post tabs as comments. Select "correction" instead!