Oops, an error
Loading. Please wait.

Dig A Pony Bass Tab

version 2
version 2

Whole song

Interactive

17,068 views 54 this week
2 commentsread comments
1 2 3 4 5
excellent!
x 12
add to favorites
launch autoscroll
font size
0
reset
guitar tuner
Tab Pro tools
  • play this tab
  • loop segment
  • change instrument
  • show fretboard
  • metronome
×
Best way to learn
"Dig A Pony"
Autoscroll
slow
fast
+/-
esc
set tempo
stop
Contributor
        ----------------------------------------------------------

                       THE BEATLES - DIG A PONY
                              John Lennon
                From LET IT BE... NAKED album. Released on
                          18th, November 2003

        ----------------------------------------------------------





      INTRO


   G|-------------------------------|---------------------7---------|
   D|---------------------5---------|-----------7-----9---------9---|
   A|-----------5-----7---------7---|-5-----9-----------------------|
   E|-3-----7-----------------------|-------------------------------|





   G|-------------------------------|-------2-----------------------|
   D|---------------------------2---|-3H4-------4-----2-------------|
   A|-0-----0---0-----3---4---------|---------------------3H4---5---|
   E|-------------------------------|-------------------------------|





   G|-------------------------------|---------------------7---------|
   D|---------------------5---------|-----------7-----9---------9---|
   A|-----------5-----7---------7---|-5-----9-----------------------|
   E|-3-----7-----------------------|-------------------------------|





   G|-------------------------------|-------2-----------------------|
   D|---------------------------2---|-3H4-------4-----2---------2---|
   A|-0-----0---0-----3---4---------|---------------------3H4-------|
   E|-------------------------------|-------------------------------|





      VERSE


   G|-------------------------------|-------------------------------|
   D|-------------------------------|-------------------------------|
   A|-0-----------------------------|---------------------7---------|
   E|-------------------------------|-------------------------------|
      I               ah  hi           hi             ah  hi




   G|-------------------------------|-------------------------------|
   D|-7-----------------------------|-7-------------------2---------|
   A|-------------------------------|-----------4-------------------|
   E|-------------------------------|-------------------------------|
      hi                                                  dig a pony




   G|-------------------------------|-------------------------------|
   D|-4-----------------------------|-4---------2-------------------|
   A|---------------------------4---|---------------------4---------|
   E|-------------------------------|-------------------------------|
                                                      Well   can
                                                          you




   G|-------------------------------|-------------------------------|
   D|-------------------------------|-------------------------------|
   A|-2-----------------------------|-------------------------------|
   E|-------------------------------|-3-------------------------0---|
      celebrate    anything     you   want




   G|-------------------------------|-------------------------------|
   D|-------------------------------|-------------------------------|
   A|-----------0---------1---------|-2-----------------------------|
   E|-3-----------------------------|-------------------------------|
                          Yes         you can   celebrate    anything




   G|-------------------------------|-------------------------------|
   D|-------------------------------|-------------------------------|
   A|-------------------------------|-7--7--7---7--7------7--7--7---|
   E|-3-----------------------------|-------------------------------|
                you want




   G|-------------------------------|
   D|-------------------------------|
   A|-7--7--7---7-----7---7---------|
   E|-------------------------------|
      Ohhhhhhhhhhhhhhhhhhhh




      VERSE


   G|-------------------------------|-------------------------------|
   D|-------------------------------|-------------------------------|
   A|-0-----------------------------|---------------------7---------|
   E|-------------------------------|-------------------------------|
      I               ah  hi           hi             ah  hi




   G|-------------------------------|-------------------------------|
   D|-7-----------------------------|-7-------------------2---------|
   A|-------------------------------|-----------4-------------------|
   E|-------------------------------|-------------------------------|
      hi                                                  do a  road




   G|-------------------------------|-------------------------------|
   D|-4-----------------------------|-4---------2-------------------|
   A|---------------------------4---|---------------------4---------|
   E|-------------------------------|-------------------------------|
                hog                                   Well   can
                                                          you




   G|-------------------------------|-------------------------------|
   D|-------------------------------|-5-----------------------------|
   A|-2-----------------------------|-------------------------------|
   E|-------------------------------|---------------------------2---|
      penetrate    any    place you   go




   G|-------------------------------|-------------------------------|
   D|-------------------------------|-------------------------------|
   A|-----------0---------1---------|-2-----------------------------|
   E|-3-----------------------------|-------------------------------|
                          Yes         you can   penetrate    any




   G|-------------------------------|-------------------------------|
   D|-5-----------------------------|-------------------------------|
   A|-------------------------------|-7--7--7---7-----7---7---------|
   E|-------------------------------|-------------------------------|
      place     you go                                          I




   G|-9-----9---9-----9---9-\-------|
   D|-------------------------------|
   A|-------------------------------|
   E|-------------------------------|
      told      you   so




      BRIDGE


   G|-------------------------------|---------------------7---------|
   D|-------------------------------|-4---------7-------------------|
   A|-----------2---------5---------|-------------------------------|
   E|-3-----------------------------|-------------------------------|
      All                 I           want                is




   G|-------------------------------|-------------------------------|
   D|-------------------------------|-------------------------------|
   A|-------------------------------|-------------------------------|
   E|-------------------------------|-------------------------------|
      you




   G|-------------------------------|---------------------7---------|
   D|---------------------5---------|-----------7-----9---------9---|
   A|-----------5-----7---------7---|-5-----9-----------------------|
   E|-3-----7-----------------------|-------------------------------|
      Ev'rything      has got   to    be    just      you want  it
                                                like




   G|-------------------------------|-------------------------------|
   D|-7-----------------------------|-------------------------------|
   A|-------------------------------|-------------------------------|
   E|-------------------------------|-------------------------------|
      to




   G|-------------------------------|-------------------------------|
   D|-------------------------------|-------------------------------|
   A|-------------------------------|-------------------------------|
   E|-------------------------------|-------------------------------|
      Because




      VERSE


   G|-------------------------------|-------------------------------|
   D|-------------------------------|-------------------------------|
   A|-0-----------------------------|---------------------7---------|
   E|-------------------------------|-------------------------------|
      I               ah  hi           hi             ah  hi




   G|-------------------------------|---------------------2---------|
   D|-7-----------------------------|-----------2-------------------|
   A|-------------------------------|-4-----------------------------|
   E|-------------------------------|-------------------------------|
      hi                                                  pick  moon
                                                             a




   G|-------------------------------|-------------------------------|
   D|-4-----------------------------|-4---------2-------------------|
   A|---------------------------4---|---------------------4---------|
   E|-------------------------------|-------------------------------|
                dog                                   Well   can
                                                          you




   G|-------------------------------|-------------------------------|
   D|-------------------------------|-5-----------------------------|
   A|-2-----------------------------|-------------------------------|
   E|-------------------------------|---------------------------2---|
      radiate      ev'rything   you   are




   G|-------------------------------|-------------------------------|
   D|-------------------------------|-------------------------------|
   A|-----------0---------1---------|-2-----------------------------|
   E|-3-----------------------------|-------------------------------|
                          Yes         you can   radiate      ev'rything




   G|-------------------------------|-------------------------------|
   D|-5-----------------------------|-------------------------------|
   A|-------------------------------|-7-----------------------------|
   E|---------------------------7---|-------------------------------|
                you are




   G|-9--9--9---9--9--9---9-\-------|
   D|-------------------------------|
   A|-------------------------------|
   E|-------------------------------|
      Ohhhhhhhhhhhhhhhh   now




      VERSE


   G|-------------------------------|-------------------------------|
   D|-------------------------------|-------------------------------|
   A|-0-----------------------------|---------------------7---------|
   E|-------------------------------|-------------------------------|
      I               ah  hi           hi             ah  hi




   G|-------------------------------|-------------------------------|
   D|-7-----------------------------|-7-------------------2---------|
   A|-------------------------------|-----------4-------------------|
   E|-------------------------------|-------------------------------|
      hi                                                  roll  stoney
                                                             a




   G|-------------------------------|-------------------------------|
   D|-4-----------------------------|-4---------2-------------------|
   A|---------------------------4---|---------------------4---------|
   E|-------------------------------|-------------------------------|
                                                      Well   can
                                                          you




   G|-------------------------------|-------------------------------|
   D|-------------------------------|-5-----------------------------|
   A|-2-----------------------------|-------------------------------|
   E|-------------------------------|-------------------------------|
      imitate      ev'ryone     you   know




   G|-------------------------------|-------------------------------|
   D|-------------------------------|-------------------------------|
   A|-----------0---------1---------|-2-----------------------------|
   E|-3-----------------------------|-------------------------------|
                          Yes         you can   imitate      ev'ryone




   G|-------------------------------|-------------------------------|
   D|-5-----------------------------|-------------------------------|
   A|-------------------------------|-7--7--7---7--7--7---7--7--7---|
   E|-------------------------------|-------------------------------|
                you know                                        I




   G|-------------------------------|
   D|-------------------------------|
   A|-7--7--7---7--7--7---7-\-------|
   E|-------------------------------|
      told      you   so




      BRIDGE


   G|-------------------------------|---------------------7---------|
   D|-------------------------------|-4---------7-------------------|
   A|-----------2---------5---------|-------------------------------|
   E|-3-----------------------------|-------------------------------|
      All                 I           want                is




   G|-------------------------------|-------------------------------|
   D|-------------------------------|-------------------------------|
   A|-------------------------------|-------------------------------|
   E|-------------------------------|-------------------------------|
      you




   G|-------------------------------|---------------------7---------|
   D|---------------------5---------|-----------7-----9---------9---|
   A|-----------5-----7---------7---|-5-----9-----------------------|
   E|-3-----7-----------------------|-------------------------------|
      Ev'rything      has got   to    be    just      you want  it
                                                like




   G|-------------------------------|-------------------------------|
   D|-7-----------------------------|-------------------------------|
   A|-------------------------------|-------------------------------|
   E|-------------------------------|-------------------------------|
      to




   G|-------------------------------|-------------------------------|
   D|-------------------------------|-------------------------------|
   A|-------------------------------|-------------------------------|
   E|-------------------------------|-------------------------------|
      Because




      GUITAR SOLO


   G|-------------------------------|-------------------------------|
   D|-------------------------------|-------------------------------|
   A|-0-----------------------------|---------------------7---------|
   E|-------------------------------|-------------------------------|





   G|-------------------------------|---------------------2---------|
   D|-7-----------------------------|-----------2-------------------|
   A|-------------------------------|-4-----------------------------|
   E|-------------------------------|-------------------------------|





   G|-------------------------------|-------------------------------|
   D|-4-----------------------------|-4---------2-------------------|
   A|-------------------------------|---------------------4---------|
   E|-------------------------------|-------------------------------|





   G|-------------------------------|-------------------------------|
   D|-------------------------------|-5-----------------------------|
   A|-2-----------------------------|-------------------------------|
   E|-------------------------------|-------------------------------|





   G|-------------------------------|-------------------------------|
   D|-------------------------------|-------------------------------|
   A|-----------0---------1---------|-2-----------------------------|
   E|-3-----------------------------|-------------------------------|





   G|-------------------------------|-------------------------------|
   D|-5-----------------------------|-------------------------------|
   A|-------------------------------|/7--7--7---7--7--7---7--7--7---|
   E|-------------------------------|-------------------------------|





   G|-9--9--9---9--9--9---9-\-------|
   D|-------------------------------|
   A|-------------------------------|
   E|-------------------------------|
      Ohhhhhhhhhhhhhhhh   now




      VERSE


   G|-------------------------------|-------------------------------|
   D|-------------------------------|-------------------------------|
   A|-0-----------------------------|---------------------7---------|
   E|-------------------------------|-------------------------------|
      I               ah  hi           hi             ah  hi




   G|-------------------------------|-------------------------------|
   D|-7-----------------------------|-7-------------------2---------|
   A|-------------------------------|-----------4-------------------|
   E|-------------------------------|-------------------------------|
      hi                                                  feel  wind
                                                             the




   G|-------------------------------|-------------------------------|
   D|-4-----------------------------|-4---------2-------------------|
   A|-------------------------------|---------------------4---------|
   E|-------------------------------|-------------------------------|
      blow                                            Well   can
                                                          you




   G|-------------------------------|-------------------------------|
   D|-------------------------------|-5-----------------------------|
   A|-2-----------------------------|-------------------------------|
   E|-------------------------------|---------------------------2---|
      indicate     ev'rything   you   see




   G|-------------------------------|-------------------------------|
   D|-------------------------------|-------------------------------|
   A|-----------0---------1---------|-2-----------------------------|
   E|-3-----------------------------|-------------------------------|
                          Yes         you can   indicate     anything




   G|-------------------------------|-------------------------------|
   D|-5-----------------------------|-------------------------------|
   A|-------------------------------|-7---------7---------7---------|
   E|-------------------------------|-------------------------------|
                you       see




   G|-------------------------------|
   D|-------------------------------|
   A|-7---------7---------7---------|
   E|-------------------------------|
      Ohhhhhhhhhhhhhhhh   now




      VERSE


   G|-------------------------------|-------------------------------|
   D|-------------------------------|-------------------------------|
   A|-0-----------------------------|---------------------7---------|
   E|-------------------------------|-------------------------------|
      I               ah  hi           hi             ah  hi




   G|-------------------------------|-------------------------------|
   D|-7-----------------------------|-7-------------------2---------|
   A|-------------------------------|-----------4-------------------|
   E|-------------------------------|-------------------------------|
      hi                                                  Laurie




   G|-------------------------------|-------------------------------|
   D|-4-----------------------------|-4---------2-------------------|
   A|-------------------------------|---------------------4---------|
   E|-------------------------------|-------------------------------|
      Laurie                                          Well   can
                                                          you




   G|-------------------------------|-------------------------------|
   D|-------------------------------|-5-----------------------------|
   A|-2-----------------------------|-------------------------------|
   E|-------------------------------|---------------------------0---|
      syndicate    any    boat  you   row




   G|-------------------------------|-------------------------------|
   D|-------------------------------|-------------------------------|
   A|-----------0---------1---------|-2-----------------------------|
   E|-3-----------------------------|-------------------------------|
                          Yeah!          you    syndicate    any
                                            can




   G|-------------------------------|-------------------------------|
   D|-5-----------------------------|-------------------------------|
   A|-------------------------------|-7--7--7---7--7--7---7--7--7---|
   E|-------------------------------|-------------------------------|
      boat      you row                                         I




   G|-------------------------------|
   D|-------------------------------|
   A|-7--7--7---7--7--7---7-\-------|
   E|-------------------------------|
      told      you   so




      BRIDGE


   G|-------------------------------|---------------------7---------|
   D|-------------------------------|-4---------7-------------------|
   A|-----------2---------5---------|-------------------------------|
   E|-3-----------------------------|-------------------------------|
      All                 I           want                is




   G|-------------------------------|-------------------------------|
   D|-------------------------------|-------------------------------|
   A|-------------------------------|-------------------------------|
   E|-------------------------------|-------------------------------|
      you




   G|-------------------------------|---------------------7---------|
   D|---------------------5---------|-----------7-----9---------9---|
   A|-----------5-----7---------7---|-5-----9-----------------------|
   E|-3-----7-----------------------|-------------------------------|
      Ev'rything      has got   to    be    just      you want  it
                                                like




   G|-------------------------------|-------------------------------|
   D|-7-----------------------------|-------------------------------|
   A|-------------------------------|-------------------------------|
   E|-------------------------------|-------------------------------|
      to




   G|-------------------------------|-------------------------------|
   D|-------------------------------|-------------------------------|
   A|-------------------------------|-------------------------------|
   E|-------------------------------|-------------------------------|
      Because




      OUTRO


   G|-------------------------------|---------------------7---------|
   D|---------------------5---------|-----------7-----9---------9---|
   A|-----------5-----7---------7---|-5-----9-----------------------|
   E|-3-----7-----------------------|-------------------------------|





   G|-------------------------------|-------2-----------------------|
   D|---------------------------2---|-3H4-------4-----2---------2---|
   A|-0-----0---0-----3---4---------|---------------------3H4-------|
   E|-------------------------------|-------------------------------|





   G|-------------------------------|---------------------7---------|
   D|---------------------5---------|-----------7-----9---------9---|
   A|-----------5-----7---------7---|-5-----9-----------------------|
   E|-3-----7-----------------------|-------------------------------|





   G|-------------------------------|-------2-----------------------|
   D|---------------------------2---|-3H4-------4-----2---------2---|
   A|-0-----0---0-----3---4---------|---------------------3H4-------|
   E|-------------------------------|-------------------------------|





   G|-------------------------------|-------------------------------|
   D|-------------------------------|-------------------------------|
   A|-0-----------------------------|-------------------------------|
   E|-------------------------------|-------------------------------|
comments
print report bad tab
2 comments total.
0 reply
BitchKilla225 wrote on February 27 2014, 02:43 am

tight. nice. good. great. grand. wonderful.

0 reply
nicodabassman wrote on December 19 2014, 04:15 pm

I think there's some notes missing in the bridge not sure what they are but you listen to the song again.

I want to post or [tab]
guest
You may want to rate the tab now too:
select rating
Please do not post tabs as comments. Select "correction" instead!