Oops, an error
Loading. Please wait.

Dr Robert tab

version 3
version 3

Whole song

Interactive

2,442 views 1 this week
no commentswrite comment
1 2 3 4 5
1 last vote to show rating
add to favorites
×
Save as Personal and add changes to this tab that will be seen only by you. Learn more ›
×
You can save this tab as Personal to edit and correct it or add notes. All changes will be seen only by you. Learn more »
launch autoscroll
font size
0
reset
how to read this tab
guitar tuner
edit
Autoscroll
slow
fast
+/-
esc
set tempo
stop
Author
  ------------------------------------------------------------

  THE BEATLES - DR. ROBERT (Lennon & MacCartney) from REVOLVER
                album. Released on August, 6th 1966.

  ------------------------------------------------------------

  Tabbed by:PJVillanueva


  The rhythm guitar for this song can be played rather
  accurately, though it may prove a little difficult at
  first, by just one guitar. Some people including myself
  have tabbed it before for a single guitar, but in fact
  there were two different rhythm guitar tracks, which
  were conveniently mixed together. I think no one else
  has ever mentioned this fact and I though it would be
  of interest to many Beatles addicts, so I have finally
  decided to tab it the way it was recorded (two differnt
  parts) so that anyone who's interested can have a look
  at it. I'm pretty sure that there's no way in which it
  could have been recorded without any overdubs. Anyone
  can check it by listening to the record and following
  this.


  Ring my friend, I said you call Doctor Robert
  Day or night he'll be there any time at all, Doctor Robert

  Doctor Robert, you're a new and better man
  He helps you to understand
  He does everything he can, Doctor Robert

  If you're down he'll pick you up, Doctor Robert
  Take a drink from his special cup, Doctor Robert

  Doctor Robert, he's a man you must believe,
  Helping everyone in need

  No one can succeed like Doctor Robert

  Well well well you're feeling fine
  Well well well, he'll make you...Doctor Robert

  My friend works for the National Health, Doctor Robert
  Don't pay money just to see yourself with Doctor Robert

  Doctor Robert, you're a new and better man,
  He helps you to understand,
  He does everything he can, Doctor Robert

  Well well well you're feeling fine
  Well well well, he'll make you...Doctor Robert

  Ring my friend, I said you call Doctor Robert
  Ring my friend, I said you call Doctor Robert
  Doctor Robert


    INTRO

    A
  e|------- ------- ------- -------|------- ------- ------- -------|
  B|--------2-----------3----------|--------2-----------3----------|
  G|--------2-----------2-------0--|--------0-----H-2---2-----P-0--|
  D|-------------------------------|-------------------------------|
  A|-------------------------------|-------------------------------|
  E|-------------------------------|-------------------------------|

  e|------- ------- ------- -------|------- ------- ------- -------|
  B|-------------------------------|-------------------------------|
  G|-------------------------------|-------------------------------|
  D|-------------------------------|-------------------------------|
  A|0---------------0-------5----H-|7---------------0-------5---5-H|
  E|-------------------------------|-------------------------------|


  e|------- ------- ------- -------|------- ------- ------- -------|
  B|--------2-----------3----------|--------2-----------3----------|
  G|--------0-----H-2---2-------0--|--------0-----H-2---2-------0--|
  D|-------------------------------|-------------------------------|
  A|-------------------------------|-------------------------------|
  E|-------------------------------|-------------------------------|

  e|------- ------- ------- -------|------- ------- ------- -------|
  B|-------------------------------|-------------------------------|
  G|-------------------------------|-------------------------------|
  D|-------------------------------|-------------------------------|
  A|7---------------0-------5---5-H|7-------7---7---0-------5---5/7|
  E|-------------------------------|-------------------------------|


    VERSE 1
    00:06

  e|------- ------- ------- -------|------- ------- ------- -------|
  B|--------2-----------3----------|--------2-----------3----------|
  G|--------2-----------2-------0--|--------0-----H-2---2-------0--|
  D|-------------------------------|-------------------------------|
  A|-------------------------------|-------------------------------|
  E|-------------------------------|-------------------------------|
    Ring        friend, I       said    you     call    Dr
        my
  e|------- ------- ------- -------|------- ------- ------- -------|
  B|-------------------------------|-------------------------------|
  G|-------------------------------|-------------------------------|
  D|-------------------------------|-------------------------------|
  A|--------7---7---0-------5---5/7|--------7---7---0----------/7--|
  E|-------------------------------|-------------------------------|


  e|------- ------- ------- -------|------- ------- ------- -------|
  B|--------2-----------3----------|--------2-----------3----------|
  G|--------0-----H-2---2-------0--|--------0-----H-2---2-------0--|
  D|-------------------------------|-------------------------------|
  A|-------------------------------|-------------------------------|
  E|-------------------------------|-------------------------------|
    Robert
  e|------- ------- ------- -------|------- ------- ------- -------|
  B|-------------------------------|-------------------------------|
  G|-------------------------------|-------------------------------|
  D|-------------------------------|-------------------------------|
  A|--------7-------0-------5---5-/|7-------7---7---0-------5---5-/|
  E|-------------------------------|-------------------------------|


  e|------- ------- ------- -------|------- ------- ------- -------|
  B|--------2----------------------|--------2-----------3----------|
  G|--------0-----------2-------0--|--------0-----H-2---2-------0--|
  D|-------------------------------|-------------------------------|
  A|-------------------------------|-------------------------------|
  E|-------------------------------|-------------------------------|
    Day or      night   he'll   be  there   any     time    all,
                                                        at
  e|------- ------- ------- -------|------- ------- ------- -------|
  B|-------------------------------|-------------------------------|
  G|-------------------------------|-------------------------------|
  D|-------------------------------|-------------------------------|
  A|7-------7-------0-------5---7--|--------7-------0---5-------7--|
  E|-------------------------------|-------------------------------|


  e|------- ------- ------- -------|------- ------- ------- -------|
  B|--------2-----------3----------|--------2-----------3----------|
  G|--------0-----H-2---2-------0--|--------0-----H-2---2-------3--|
  D|-------------------------------|----------------------------4--|
  A|-------------------------------|-------------------------------|
  E|-------------------------------|-------------------------------|
        Doctor  Robert                                  Doctor
  e|------- ------- ------- -------|------- ------- ------- -------|
  B|-------------------------------|-------------------------------|
  G|-------------------------------|-------------------------------|
  D|-------------------------------|-------------------------------|
  A|--------7-------0-------5---5-/|7-------7---7---0--------------|
  E|-------------------------------|-------------------------------|

    00:17
    F#
  e|------- ------- ------- -------|------- ------- ------- -------|
  B|-------------------------------|-------------------------------|
  G|--------3-----------4----------|--------------------4----------|
  D|--------4-----------4-------2--|--------2---2-------4-------2--|
  A|-------------------------------|-------------------------------|
  E|-------------------------------|-------------------------------|
    Robert                                          you're      new
                                                        a
  e|------- ------- ------- -------|------- ------- ------- -------|
  B|-------------------------------|-------------------------------|
  G|-------------------------------|-------------------------------|
  D|-------------------------------|--------2-------------------2--|
  A|4-----------------------2---2-/|4-----------------------2------|
  E|2-----------2---2--------------|----------------2--------------|


  e|------- ------- ------- -------|------- ------- ------- -------|
  B|-------------------------------|-------------------------------|
  G|--------3-----------4----------|--------3-----------4----------|
  D|--------2-----------4-------2--|--------2-----------4-------2--|
  A|-------------------------------|-------------------------------|
  E|-------------------------------|-------------------------------|
                and better      man,                he  helps   you
  e|------- ------- ------- -------|------- ------- ------- -------|
  B|-------------------------------|-------------------------------|
  G|-------------------------------|-------------------------------|
  D|--------2---2------------------|2-------2---2---------------2--|
  A|------------------------2-/-4--|------------------------2------|
  E|----------------2--------------|----------------2--------------|


  e|------- ------- ------- -------|------- ------- ------- -------|
  B|-------------------------------|-------------------------------|
  G|--------3-----------4----------|--------3-----------4-------1--|
  D|--------2-----------4-------2--|--------2-----------4-------2--|
  A|-------------------------------|-------------------------------|
  E|-------------------------------|-------------------------------|
                to  understand                      He  does    every..
  e|------- ------- ------- -------|------- ------- ------- -------|
  B|-------------------------------|-------------------------------|
  G|-------------------------------|-------------------------------|
  D|--------2-------------------2--|--------2---2------------------|
  A|------------------------2/4----|------------------------2------|
  E|----------------2--------------|----------------2--------------|

    00:26
    E                                F#
  e|------- ------- ------- -------|------- ------- ------- -------|
  B|-------------------------------|-------------------------------|
  G|--------1-----------2-------3--|--------3---3-------3---3------|
  D|--------2-----------2-------4--|--------4---4-------4---4------|
  A|-------------------------------|-------------------------------|
  E|-------------------------------|-------------------------------|
                  ..thing       can,                        Doctor
                        he
  e|------- ------- ------- -------|------- ------- ------- -------|
  B|-------------------------------|-------------------------------|
  G|-------------------------------|-------------------------------|
  D|-------------------------------|-------------------------------|
  A|------------------------0------|--------------------4----------|
  E|0---------------0--------------|2-----------2---2---2----------|

    B
  e|------- ------- ------- -------|------- ------- ------- -------|
  B|--------------------5----------|--------------------5----------|
  G|--------4--4--------4---2------|--------2---2-H-4---4----------|
  D|------------------------2------|-------------------------------|
  A|-------------------------------|-------------------------------|
  E|-------------------------------|-------------------------------|
    Robert
  e|------- ------- ------- -------|------- ------- ------- -------|
  B|-------------------------------|-------------------------------|
  G|-------------------------------|-------------------------------|
  D|------------------------2---2-/|4-------4-------------------0--|
  A|2---------------2--------------|----------------2-------2------|
  E|-------------------------------|-------------------------------|


    VERSE 2
    00:32
    A
  e|------- ------- ------- -------|------- ------- ------- -------|
  B|--------2-----------3----------|--------2-----------3----------|
  G|--------2-----------2-------0--|--------0---0-H-2---2-------0--|
  D|-------------------------------|-------------------------------|
  A|-------------------------------|-------------------------------|
  E|-------------------------------|-------------------------------|
    If  you're  down    he'll   pick    you     up,     Doctor
  e|------- ------- ------- -------|------- ------- ------- -------|
  B|-------------------------------|-------------------------------|
  G|-------------------------------|-------------------------------|
  D|----------------------------5--|--------5----------------------|
  A|0---------------0-------5------|7---------------0-------0------|
  E|-------------------------------|-------------------------------|


  e|------- ------- ------- -------|------- ------- ------- -------|
  B|--------2-----------3----------|--------2----------------------|
  G|--------0---0-H-2---2-------0--|--------0---0-H-2---2-------0--|
  D|-------------------------------|-------------------------------|
  A|-------------------------------|-------------------------------|
  E|-------------------------------|-------------------------------|
    Robert
  e|------- ------- ------- -------|------- ------- ------- -------|
  B|-------------------------------|-------------------------------|
  G|-------------------------------|-------------------------------|
  D|----------------------------5--|--------5----------------------|
  A|0---------------0-------5------|7---------------0---5-------7--|
  E|-------------------------------|-------------------------------|


  e|------- ------- ------- -------|------- ------- ------- -------|
  B|--------2-----------3----------|--------2-----------3----------|
  G|--------0---0-H-2---2-------0--|--------0-----H-2---2----------|
  D|-------------------------------|-------------------------------|
  A|-------------------------------|-------------------------------|
  E|-------------------------------|-------------------------------|
    Take        drink   from    his special     cup,    Doctor
        a
  e|------- ------- ------- -------|------- ------- ------- -------|
  B|-------------------------------|-------------------------------|
  G|-------------------------------|-------------------------------|
  D|-------------------------------|-------------------------------|
  A|--------7-------0---5-------7--|--------7-------0-----------5-/|
  E|-------------------------------|-------------------------------|


  e|------- ------- ------- -------|------- ------- ------- -------|
  B|--------2-----------3----------|--------------------3----------|
  G|--------0---0-H-2---2-------0--|--------0---0-H-2---2----------|
  D|-------------------------------|-------------------------------|
  A|-------------------------------|-------------------------------|
  E|-------------------------------|-------------------------------|
    Robert                                              Doctor
  e|------- ------- ------- -------|------- ------- ------- -------|
  B|-------------------------------|-------------------------------|
  G|-------------------------------|-------------------------------|
  D|--------5---5-------------/-5--|--------5---5------------------|
  A|7---------------0---------/-7--|--------7----------------------|
  E|-------------------------------|-------------------------------|

    00:43
    F#
  e|------- ------- ------- -------|------- ------- ------- -------|
  B|-------------------------------|-------------------------------|
  G|--------3-----------4----------|--------3-----------4----------|
  D|--------4-----------4-------2--|--------2---2-H-4---4-------2--|
  A|-------------------------------|-------------------------------|
  E|-------------------------------|-------------------------------|
    Robert                                          He's        man
                                                        a
  e|------- ------- ------- -------|------- ------- ------- -------|
  B|-------------------------------|-------------------------------|
  G|-------------------------------|-------------------------------|
  D|----------------------------2--|--------2---2---------------2--|
  A|------------------------2-----/|4------------------------------|
  E|2--------------/2--------------|----------------2--------------|


  e|------- ------- ------- -------|------- ------- ------- -------|
  B|-------------------------------|-------------------------------|
  G|--------------------4----------|--------3-----------4----------|
  D|--------2---2-H-4---4-------2--|--------2-----------4-------2--|
  A|-------------------------------|-------------------------------|
  E|-------------------------------|-------------------------------|
                you must    believe                 helping     every...
  e|------- ------- ------- -------|------- ------- ------- -------|
  B|-------------------------------|-------------------------------|
  G|-------------------------------|-------------------------------|
  D|--------2---2---------------2--|--------2---2---------------2--|
  A|------------------------2---4--|-------------------------------|
  E|----------------2--------------|----------------2--------------|

                                                                E
  e|------- ------- ------- -------|------- ------- ------- -------|
  B|-------------------------------|-------------------------------|
  G|--------3-----------4----------|--------3-----------4-------1--|
  D|--------2-----------4-------2--|--------2-----------4-------0-H|
  A|-------------------------------|----------------------------0-H|
  E|-------------------------------|----------------------------0--|
                  ..one in      need
  e|------- ------- ------- -------|------- ------- ------- -------|
  B|-------------------------------|-------------------------------|
  G|-------------------------------|-------------------------------|
  D|--------2---2---------------2--|--------2---2---2--------------|
  A|------------------------2---4--|-------------------------------|
  E|----------------2--------------|-------------------------------|


    TRANSITION CADENCE
    00:52
                                    F#
  e|------- 0------ ------- -------|------- ------- ------- -------|
  B|--------0-----------0----------|-------------------------------|
  G|--------1-----------1-------1--|--------------------3----------|
  D|2-------2-----------2-------2--|4-------4-------4---4---4------|
  A|2-------2-----------2-------2--|4-------4-------4---4---4------|
  E|0-------0-----------0-------0--|2-------2-------2---2---2------|
    No      one     can     succeed         like    Doctor      Robert
  e|------- ------- ------- -------|------- ------- ------- -------|
  B|-------------------------------|-------------------------------|
  G|-------------------------------|-------------------------------|
  D|-------------------------------|-------------------------------|
  A|2-------2-------2---2---2---2--|4-------4-------4-------4------|
  E|0-------0-------0---0---0---0--|2-------2-------2-------2------|

    00:55

  e|7------ 7------ 7------ 7------|7------ 7------ 7------ 7------|
  B|7-------7-------7-------7------|7-------7-------7-------7------|
  G|8-------8-------8-------8------|8-------8-------8-------8------|
  D|9-------9-------9-------9------|9-------9-------9-------9------|
  A|9-------9-------9-------9------|9-------9-------9-------9------|
  E|7-------7-------7-------7------|7-------7-------7-------7------|

  e|------- ------- ------- -------|------- ------- ------- -------|
  B|-------------------------------|-------------------------------|
  G|-------------------------------|-------------------------------|
  D|-------------------------------|-------------------------------|
  A|9-------9---------------9------|9-------9-------9-------9------|
  E|7-------7---------------7------|7-------7-------7-------7------|

  e|------- 2------ ------- -------|------- ------- ------- -------|
  B|----------------5-\-4-------4-/|5---------------5-\-4----------|
  G|4-----------------------4------|--------4----------------------|
  D|-------------------------------|-------------------------------|
  A|-------------------------------|-------------------------------|
  E|-------------------------------|-------------------------------|


    MIDDLE EIGHT 1
    00:58

  e|7------ ------- ------- -------|------- ------- ------- -------|
  B|7------------------------------|-------------------------------|
  G|8------------------------------|-------------------------------|
  D|9------------------------------|-------------------------------|
  A|9------------------------------|-------------------------------|
  E|7------------------------------|-------------------------------|
    (Harmonium)
  e|2------ ------- ------- -------|------- ------- ------- -------|
  B|4------------------------------|-------------------------------|
  G|4------------------------------|-------------------------------|
  D|4------------------------------|-------------------------------|
  A|2------------------------------|-------------------------------|
  E|-------------------------------|-------------------------------|
    Well            well            well            you're
  e|2------ ------- ------- -------|------- ------- ------- -------|
  B|-------------------------------|4---------------4-------------4|
  G|-------------------------------|-------------------------------|
  D|-------------------------------|-------------------------------|
  A|-------------------------------|-------------------------------|
  E|-------------------------------|-------------------------------|


  e|4------ ------- ------- -------|2------ ------- ------- -------|
  B|5------------------------------|4------------------------------|
  G|4------------------------------|4------------------------------|
  D|2------------------------------|4------------------------------|
  A|2------------------------------|2------------------------------|
  E|-------------------------------|-------------------------------|
    feeling                         fine
  e|------- ------- ------- -------|------- ------- ------- -------|
  B|4---------------4------------4-|4---------------4-------------4|
  G|-------------------------------|-------------------------------|
  D|-------------------------------|-------------------------------|
  A|-------------------------------|-------------------------------|
  E|-------------------------------|-------------------------------|


  e|------- ------- ------- -------|------- ------- ------- -------|
  B|-------------------------------|-------------------------------|
  G|-------------------------------|-------------------------------|
  D|-------------------------------|-------------------------------|
  A|-------------------------------|-------------------------------|
  E|-------------------------------|-------------------------------|
    Well            well            well            he'll
  e|------- ------- ------- -------|------- ------- ------- -------|
  B|4---------------4------------4-|4---------------4-------------4|
  G|-------------------------------|-------------------------------|
  D|-------------------------------|-------------------------------|
  A|-------------------------------|-------------------------------|
  E|-------------------------------|-------------------------------|


  e|4------ ------- ------- -------|------- ------- ------- -------|
  B|5------------------------------|-------------------------------|
  G|4------------------------------|-------------------------------|
  D|2------------------------------|-------------------------------|
  A|2------------------------------|-------------------------------|
  E|-------------------------------|-------------------------------|
    make            you                                     Doctor
  e|------- ------- ------- -------|------- ------- ------- -------|
  B|4---------------4------------4-|4---------------4-------------4|
  G|-------------------------------|-------------------------------|
  D|-------------------------------|-------------------------------|
  A|-------------------------------|-------------------------------|
  E|-------------------------------|-------------------------------|

    01:10
    A
  e|------- ------- ------- -------|------- ------- ------- -------|
  B|--------2-----------3----------|--------2-----------3----------|
  G|--------2-----------2-------0--|--------0-----H-2---2-------0--|
  D|-------------------------------|-------------------------------|
  A|-------------------------------|-------------------------------|
  E|-------------------------------|-------------------------------|
    Robert
  e|------- ------- ------- -------|------- ------- ------- -------|
  B|-------------------------------|-------------------------------|
  G|-------------------------------|-------------------------------|
  D|--------5-------------------5--|--------5-------------------5--|
  A|7---------------0---7-P-5------|7---------------0---7-P-5------|
  E|-------------------------------|-------------------------------|

  e|------- 5------ ------- -------|------- ------- ------- ----5--|
  B|--------------------2-H-3------|--------3-P-2-------2-H-3------|
  G|-------------------------------|-------------------------------|
  D|-------------------------------|-------------------------------|
  A|-------------------------------|-------------------------------|
  E|-------------------------------|-------------------------------|


    VERSE 3
    01:13

  e|------- ------- ------- -------|------- ------- ------- -------|
  B|--------2-----------3----------|--------2-----------3----------|
  G|--------2-----------2-------0--|--------0-----H-2---2----------|
  D|-------------------------------|-------------------------------|
  A|-------------------------------|-------------------------------|
  E|-------------------------------|-------------------------------|
    My  friend  works   for     the National    Health, Doctor
  e|------- ------- ------- -------|------- ------- ------- -------|
  B|-------------------------------|-------------------------------|
  G|-------------------------------|-------------------------------|
  D|--------5---5-H-7---7-------5--|--------5-----H-7---7----------|
  A|7------------------------------|-------------------------------|
  E|-------------------------------|-------------------------------|

  e|------- ------- ------- -------|------- ------- ------- -------|
  B|-------------------------------|-------------------------------|
  G|-------------------------------|----------------------------1-/|
  D|-------------------------------|-------------------------------|
  A|-------------------------------|-------------------------------|
  E|-------------------------------|-------------------------------|


  e|------- ------- ------- -------|------- ------- ------- -------|
  B|--------2-----------3----------|--------2-----------3----------|
  G|--------0-----H-2---2-------0--|--------0-----------2-------0--|
  D|-------------------------------|-------------------------------|
  A|-------------------------------|-------------------------------|
  E|-------------------------------|-------------------------------|
    Robert
  e|------- ------- ------- -------|------- ------- ------- -------|
  B|-------------------------------|-------------------------------|
  G|-------------------------------|-------------------------------|
  D|--------5-----H-7---7-------5--|--------5-----H-7---7-------5--|
  A|------------------------5------|7-----------------------5------|
  E|-------------------------------|-------------------------------|

  e|----5-- ------- ------- -------|------- ------- 5------ -------|
  B|----------------3H5P3-------3-P|2-------2-/-3-------3-H-5------|
  G|2-------2---------------2------|----2--------------------------|
  D|-------------------------------|-------------------------------|
  A|-------------------------------|-------------------------------|
  E|-------------------------------|-------------------------------|


  e|------- ------- ------- -------|------- ------- ------- -------|
  B|--------2-----------3----------|--------2-----------3----------|
  G|--------0-----H-2---2-------0--|--------0-----H-2---2----------|
  D|-------------------------------|-------------------------------|
  A|-------------------------------|-------------------------------|
  E|-------------------------------|-------------------------------|
    Don't       money       just    see     yourself    with
        pay                     to                          Doctor
  e|------- ------- ------- -------|------- ------- ------- -------|
  B|-------------------------------|-------------------------------|
  G|-------------------------------|-------------------------------|
  D|--------5---5-H-7---7-------5--|--------5-----H-7---7-------5--|
  A|-------------------------------|-------------------------------|
  E|-------------------------------|-------------------------------|

  e|------- ------- ------- -------|------- ------- ------- -------|
  B|3------------------------------|-------------------------------|
  G|-------------------------------|----------------------------1-/|
  D|-------------------------------|-------------------------------|
  A|-------------------------------|-------------------------------|
  E|-------------------------------|-------------------------------|


  e|------- ------- ------- -------|------- ------- ------- -------|
  B|--------2-----------3----------|--------2-----------3-------0--|
  G|--------0-----H-2---2-------0--|--------0-----H-2---2-------0--|
  D|-------------------------------|-------------------------------|
  A|-------------------------------|-------------------------------|
  E|-------------------------------|-------------------------------|
    Robert                                              Doctor
  e|------- ------- ------- -------|------- ------- ------- -------|
  B|-------------------------------|-------------------------------|
  G|-------------------------------|-------------------------------|
  D|--------5-----H-7---7-------5--|--------5-----H-7---7----------|
  A|------------------------5------|7------------------------------|
  E|-------------------------------|----------------------------0--|

  e|------- 5------ ------- -------|5------ ------- ------- -------|
  B|----2-----------2-H-3----------|--------3-P-2---2-H-3----------|
  G|2------------------------------|-------------------------------|
  D|-------------------------------|-------------------------------|
  A|-------------------------------|-------------------------------|
  E|-------------------------------|-------------------------------|


    01:24

    F#
  e|------- ------- ------- -------|------- ------- ------- -------|
  B|-------------------------------|-------------------------------|
  G|--------3-----------4----------|--------3-----------4----------|
  D|--------4-----------4-------2--|--------2---2-H-4---4-------2--|
  A|-------------------------------|-------------------------------|
  E|-------------------------------|-------------------------------|
    Robert                                          you're      new
                                                        a
  e|------- ------- ------- -------|------- ------- ------- -------|
  B|-------------------------------|-------------------------------|
  G|-------------------------------|-------------------------------|
  D|----------------------------2--|--------2----2--------------2--|
  A|------------------------2------|-------------------------------|
  E|2-----------0H1/2--------------|----------------2--------------|

  e|------- 2------ ------- -------|------- ------- ------- -------|
  B|-------------------------------|-------------------------------|
  G|-------------------------------|-------------------------------|
  D|-------------------------------|-------------------------------|
  A|-------------------------------|-------------------------------|
  E|-------------------------------|-------------------------------|


  e|------- ------- ------- -------|------- ------- ------- -------|
  B|-------------------------------|-------------------------------|
  G|--------3-----------4----------|--------3-----------4----------|
  D|--------2-----H-4---4-------2--|--------2-----H-4---4-------2--|
  A|-------------------------------|-------------------------------|
  E|-------------------------------|-------------------------------|
                and better      man,                He  helps   you
  e|------- ------- ------- -------|------- ------- ------- -------|
  B|-------------------------------|-------------------------------|
  G|-------------------------------|-------------------------------|
  D|--------2---2---------------2--|--------2---2---------------2--|
  A|--------------------2----------|--------------------2----------|
  E|----------------2--------------|----------------2--------------|

  e|------- 2------ ------- -------|------- ------- ------- -------|
  B|-------------------------------|-------------------------------|
  G/3------------------------------|-------------------------------|
  D|-------------------------------|-------------------------------|
  A|-------------------------------|-------------------------------|
  E|-------------------------------|-------------------------------|


  e|------- ------- ------- -------|------- ------- ------- -------|
  B|-------------------------------|-------------------------------|
  G|--------3-----------3----------|--------3---3---3---3-------1--|
  D|--------2-----------2----------|--------2---2---2---2-------2--|
  A|-------------------------------|----------------------------2--|
  E|-------------------------------|----------------------------0--|
                to  understand,                     he  does    every..
  e|------- ------- ------- -------|------- ------- ------- -------|
  B|-------------------------------|-------------------------------|
  G|-------------------------------|-------------------------------|
  D|--------2-----------2-------2--|--------2---2---2---2----------|
  A|-------------------------------|--------4---4---4---4-------2--|
  E|----------------2--------------|----------------------------0--|

  e|------- 2------ ------- -------|------- ------- ------- -------|
  B|-------------------------------|-------------------------------|
  G/3------------------------------|-------------------------------|
  D|-------------------------------|-------------------------------|
  A|-------------------------------|-------------------------------|
  E|-------------------------------|-------------------------------|


    TRANSITION CADENCE
    01:33
    E                               F#
  e|------- ------- ------- -------|------- ------- ------- -------|
  B|-------------------------------|-------------------------------|
  G|--------1-----------1---1------|3-------3-------3---3---3----/-|
  D|--------2-----------2---2------|4-------4-------4---4---4----/-|
  A|--------2-----------2---2------|4-------4-------4---4---4----/-|
  E|--------0-----------0---0------|2-------2-------2---2---2----/-|
                  ..thing       can                         Doctor
                        he
  e|------- ------- ------- -------|------- ------- ------- -------|
  B|-------------------------------|-------------------------------|
  G|-------------------------------|-------------------------------|
  D|-------------------------------|-------------------------------|
  A|2-------2-------2---2---2------|4-------4---4---4---4---4----/-|
  E|0-------0-------0---0---0------|2-------2---2---2---2---2----/-|

  e|------- ------- ------- -------|------- 2------ ------- -------|
  B|--------3----------------------|-------------------------------|
  G|4---------------------------4--|3------------------------------|
  D|-------------------------------|-------------------------------|
  A|-------------------------------|-------------------------------|
  E|-------------------------------|-------------------------------|


  e|------- ------- ------- -------|------- ------- ------- -------|
  B|-------------------------------|-------------------------------|
  G|8-------8-------8-------8------|--------8-------8---8---8------|
  D|9-------9-------9-------9------|--------9-------9---9---9------|
  A|9-------9-------9-------9------|--------9-------9---9---9------|
  E|7-------7-------7-------7------|--------7-------7---7---7------|
    Robert
  e|------- ------- ------- -------|------- ------- ------- -------|
  B|-------------------------------|-------------------------------|
  G|-------------------------------|-------------------------------|
  D|-------------------------------|-------------------------------|
  A|9-------9-------9-----------9--|--------9-----------9---9------|
  E|7-------7-------7-----------7--|--------7-----------7---7------|

  e|------- 2------ ------- -------|------- ------- ------- -------|
  B|--------------------4-\-5------|5-------5---5-----------5-\-4--|
  G|4---------------4-----------4--|--------4-----------4----------|
  D|-------------------------------|-------------------------------|
  A|-------------------------------|-------------------------------|
  E|-------------------------------|-------------------------------|


    MIDDLE EIGHT 2
    01:39

  e|2------ ------- ------- -------|------- ------- ------- -------|
  B|4------------------------------|-------------------------------|
  G|4------------------------------|-------------------------------|
  D|4------------------------------|-------------------------------|
  A|2------------------------------|-------------------------------|
  E|-------------------------------|-------------------------------|
    Well            well            well            you're
  e|------- ------- ------- -------|------- ------- ------- -------|
  B|------------------------------4|4---------------4-------------4|
  G|-------------------------------|-------------------------------|
  D|-------------------------------|-------------------------------|
  A|-------------------------------|-------------------------------|
  E|-------------------------------|-------------------------------|


  e|4------ ------- ------- -------|2------ ------- ------- -------|
  B|5------------------------------|4------------------------------|
  G|4------------------------------|4------------------------------|
  D|2------------------------------|4------------------------------|
  A|2------------------------------|2------------------------------|
  E|-------------------------------|-------------------------------|
    feeling                         fine

  e|------- ------- ------- -------|------- ------- ------- -------|
  B|4---------------4------------4-|4---------------4-------------4|
  G|-------------------------------|-------------------------------|
  D|-------------------------------|-------------------------------|
  A|-------------------------------|-------------------------------|
  E|-------------------------------|-------------------------------|


  e|------- ------- ------- -------|------- ------- ------- -------|
  B|-------------------------------|-------------------------------|
  G|-------------------------------|-------------------------------|
  D|-------------------------------|-------------------------------|
  A|-------------------------------|-------------------------------|
  E|-------------------------------|-------------------------------|
    Well            well            well            he'll
  e|------- ------- ------- -------|------- ------- ------- -------|
  B|4---------------4------------4-|4---------------4-------------4|
  G|-------------------------------|-------------------------------|
  D|-------------------------------|-------------------------------|
  A|-------------------------------|-------------------------------|
  E|-------------------------------|-------------------------------|


  e|4------ ------- ------- -------|------- ------- ------- -------|
  B|5------------------------------|-------------------------------|
  G|4------------------------------|-------------------------------|
  D|2------------------------------|-------------------------------|
  A|2------------------------------|-------------------------------|
  E|-------------------------------|-------------------------------|
    make            you                                     Doctor
  e|------- ------- ------- -------|------- ------- ------- -------|
  B|4---------------4------------4-|4---------------4--------------|
  G|-------------------------------|-------------------------------|
  D|-------------------------------|-------------------------------|
  A|-------------------------------|-------------------------------|
  E|-------------------------------|-------------------------------|


    CODA
    01:51
    A
  e|------- ------- ------- -------|------- ------- ------- -------|
  B|--------2-----------3----------|--------2-----------3----------|
  G|--------0-----------2-------0--|--------0-----H-2---2-------0--|
  D|-------------------------------|-------------------------------|
  A|-------------------------------|-------------------------------|
  E|-------------------------------|-------------------------------|

  e|------- ------- ------- -------|------- ------- ------- -------|
  B|-------------------------------|-------------------------------|
  G|-------------------------------|-------------------------------|
  D|--------------------7-------5--|--------5---5-H-7---7-------5--|
  A|------------------------5------|7-----------------------5------|
  E|-------------------------------|-------------------------------|
    Robert
  e|------- ------- ------- -------|------- 5-P-0-- ------- -------|
  B|--------2-----------2-H-3------|3-H-5---------------3---3-----P|
  G|2------------------------------|----------------2--------------|
  D|-------------------------------|-------------------------------|
  A|-------------------------------|-------------------------------|
  E|-------------------------------|-------------------------------|


  e|------- ------- ------- -------|------- ------- ------- -------|
  B|--------2-----------3----------|--------2-----------3----------|
  G|--------0-----H-2---2-------0--|--------0-----H-2---2-------0--|
  D|-------------------------------|-------------------------------|
  A|-------------------------------|-------------------------------|
  E|-------------------------------|-------------------------------|
    Ring        friend  I       said    you     call    Doctor
        my
  e|------- ------- ------- -------|------- ------- ------- -------|
  B|-------------------------------|-------------------------------|
  G|-------------------------------|-------------------------------|
  D|--------5---5-H-7---7-------5--|--------5---5-H-7---7-------5--|
  A|7-----------------------5------|-------------------------------|
  E|-------------------------------|-------------------------------|

  e|------- ------- ------- 5------|5------ ------- ------- -------|
  B|2-------------------2-H-3------|----3-H-5-------5-P-3---3-P-2--|
  G|-------------------------------|-------------------------------|
  D|-------------------------------|-------------------------------|
  A|-------------------------------|-------------------------------|
  E|-------------------------------|-------------------------------|


  e|------- ------- ------- -------|------- ------- ------- -------|
  B|--------2-----------3----------|--------2-----------3----------|
  G|--------0-----H-2---2-------0--|--------0-----H-2---2-------0--|
  D|-------------------------------|-------------------------------|
  A|-------------------------------|-------------------------------|
  E|-------------------------------|-------------------------------|
    Robert
  e|------- ------- ------- -------|------- ------- ------- -------|
  B|-------------------------------|-------------------------------|
  G|-------------------------------|-------------------------------|
  D|----------------7---7-------5--|--------5-----H-7---7-------5--|
  A|-------------------------------|-------------------------------|
  E|-------------------------------|-------------------------------|

  e|------- 5------ ------- -------|5------ ------- ------- -------|
  B|--------------------2-H-3------|------------2-H-3---3---3-P-2--|
  G|-------------------------------|-------------------------------|
  D|-------------------------------|-------------------------------|
  A|-------------------------------|-------------------------------|
  E|-------------------------------|-------------------------------|


  e|------- ------- ------- -------|------- ------- ------- -------|
  B|--------2-----------2-H-3---2--|--------2-----------2-H-3---2--|
  G|--------0-----------0-H-2---0--|--------0-----------0-H-2---0--|
  D|-------------------------------|-------------------------------|
  A|-------------------------------|-------------------------------|
  E|-------------------------------|-------------------------------|
    Ring        friend  I       said    you     call    Doctor
        my
  e|------- ------- ------- -------|------- ------- ------- -------|
  B|-------------------------------|-------------------------------|
  G|-------------------------------|-------------------------------|
  D|--------5-----H-7---7-------5--|--------5-----H-7---7-------5--|
  A|-------------------------------|-------------------------------|
  E|-------------------------------|-------------------------------|

  e|------- ------- ------- -------|----5-- ------- 5------ ----5--|
  B|--------3---3---3-P-2---2---2-H|3-------3-P-2-------2-H-3------|
  G|-------------------------------|-------------------------------|
  D|-------------------------------|-------------------------------|
  A|-------------------------------|-------------------------------|
  E|-------------------------------|-------------------------------|


  e|------- ------- ------- -------|------- ------- ------- -------|
  B|--------2-----------3---3---2--|--------2-----------3----------|
  G|--------0-----H-2---2---2---0--|--------0-----H-2---2----------|
  D|-------------------------------|-------------------------------|
  A|-------------------------------|-------------------------------|
  E|-------------------------------|-------------------------------|
    Robert                                                  Doctor
  e|------- ------- ------- -------|------- ------- ------- -------|
  B|-------------------------------|-------------------------------|
  G|-------------------------------|-------------------------------|
  D|--------5---5-H-7---7-------5--|--------5-----H-7---7----------|
  A|-------------------------------|-------------------------------|
  E|-------------------------------|-------------------------------|

  e|5------ ------- ------- -------|------- ------- 5------ -------|
  B|2-----------2-H-3---3---3-P-2--|----2--------------------------|
  G|-------------------------------|-------------------------------|
  D|-------------------------------|-------------------------------|
  A|-------------------------------|-------------------------------|
  E|-------------------------------|-------------------------------|


  e|2------ 2------ 2------ 2------|------- 2---2-- ------- 2------|
  B|2-------2-------2-------2------|--------2---2-----------2------|
  G|3-------3-------3-------3------|--------3---3-----------3------|
  D|4-------4-------4-------4------|--------4---4-----------4------|
  A|4-------4-------4-------4------|--------4---4-----------4------|
  E|2-------2-------2-------2------|--------2---2-----------2------|
    Robert
  e|2------ 2------ 2------ 2------|2------ ------- 2------ -------|
  B|2-------2-------2-------2-H-4--|2---4-P-2-------2-------2------|
  G|3-------3-------3-------3------|------------3-----------3------|
  D|-------------------------------|-------------------------------|
  A|-------------------------------|-------------------------------|
  E|-------------------------------|-------------------------------|
    .......................... Fade out ...........................

  e|7------ 7------ 7------ 7------|------- ------- ------- -------|
  B|7-------7-------7-------7------|-------------------------------|
  G|8-------8-------8-------8------|-------------------------------|
  D|9-------9-------9-------9------|-------------------------------|
  A|9-------9-------9-------9------|-------------------------------|
  E|7-------7-------7-------7------|-------------------------------|

  e|2---2-- 2------ 2---2-- 2------|------- ------- ------- -------|
  B|4---4---4-------5---5---5-P-4--|-------------------------------|
  G|4---4---4-------4---4---4------|-------------------------------|
  D|-------------------------------|-------------------------------|
  A|-------------------------------|-------------------------------|
  E|-------------------------------|-------------------------------|
    ...............................



     B  Bend
     R  Release
     /  Slide up
     \  Slide down
     H  Hammer-on
     P  Pull-off
     ~  Vibrato
     +  Harmonic
     x  Mute note
     (.  Pause

            
            
Suggest correction
Creating personal tab
Creating personal tab
You can edit any tab online and save it as your Personal.

You can edit, replace or remove any tab part or add personal notes – all changes will be seen only by you.

Personal tabs can be accessed anytime from any device, even offline.
Learn more »
Give kudos to tab author, rate the tab!
1 2 3 4 5
comments
print report bad tab
guest
You may want to rate the tab now too:
select rating
Wanna post a correction for this tab? Suggest correction