Oops, an error
Loading. Please wait.
We have an official Eight Days A Week tab made by UG professional guitarists. Check out the tab »
×
59,739 views 111 this week
2 commentsread comments
1 2 3 4 5
x 24
add to favorites
×
Save as Personal and add changes to this tab that will be seen only by you. Learn more ›
×
You can save this tab as Personal to edit and correct it or add notes. All changes will be seen only by you. Learn more »
launch autoscroll
font size
0
reset
guitar tuner
backing track
0:00
0:00
edit
Autoscroll
slow
fast
+/-
esc
set tempo
stop
Author
Difficulty
-----------------------------------------------------------------------------
EIGHT DAYS A WEEK – The Beatles
-----------------------------------------------------------------------------

Tabbed By : SPARTAN 101
e-mail: eligeek101@sbcglobal.net

Tuning: Standard


[Intro]

   --3-- --3-- --3-- --3--   --3-- --3-- --3-- --3--  
G|-7-7-7-7-7-7-7-7-7-7-7-7-|-7-7-7-7-7-7-7-7-7-7-7-7-|
D|-------------------------|-------------------------|
A|-------------------------|-------------------------| 
E|-------------------------|-------------------------|(x2)
  (start soft, get louder)


[Verse 1]

G|-7---4-----------|---------4-------|-----4---7---4---|-7---4-----------|
D|---------7---4---|-----6-------6---|-5---------------|---------7---4---|
A|-----------------|-7---------------|-----------------|-----------------|
E|-----------------|-----------------|-----------------|-----------------|
  “Oh I need your...”

G|-7---4-----------|---------4-------|-----4---7---4---|-7---4-----------|
D|---------7---4---|-----6-------6---|-5---------------|---------7---4---|
A|-----------------|-7---------------|-----------------|-----------------|
E|-----------------|-----------------|-----------------|-----------------|
  “Hope you need my...”


[Chorus]

G|-4---4-4-4-4-4-4-|-----------------|-4---4-4-4-4-4-4-|-----------------|
D|-----------------|-5---5-5-5-5-5-5-|-----------------|-----------------|
A|-----------------|-----------------|-----------------|-7---7-7-7-7-7-7-|
E|-----------------|-----------------|-----------------|-----------------|
  “Hold me, love me...”

G|-7---4-----------|---------4-------|-----4---7---4---|-7---4-----------|
D|---------7---4---|-----6-------6---|-5---------------|---------7---4---|
A|-----------------|-7---------------|-----------------|-----------------|
E|-----------------|-----------------|-----------------|-----------------|
  “I ain’t got nothing...”


[Verse 2]

G|-7---4-----------|---------4-------|-----4---7---4---|-7---4-----------|
D|---------7---4---|-----6-------6---|-5---------------|---------7---4---|
A|-----------------|-7---------------|-----------------|-----------------|
E|-----------------|-----------------|-----------------|-----------------|
  “Love you every day...”

G|-7---4-----------|---------4-------|-----4---7---4---|-7---4-----------|
D|---------7---4---|-----6-------6---|-5---------------|---------7---4---|
A|-----------------|-7---------------|-----------------|-----------------|
E|-----------------|-----------------|-----------------|-----------------|
  “One thing I can...”


[Bridge]

G|-----------------|-----------------|-4---4---4---4---|-4---4---4---4---|
D|-7---7---7---7---|-7---7---7---7---|-----------------|-----------------|
A|-----------------|-----------------|-----------------|-----------------|
E|-----------------|-----------------|-----------------|-----------------|
  “Eight  days       a week         I   lo  o   o   o     o ove you”

G|-----------------|-----------------|-----------------|-----------------|
D|-----------------|-----------------|-5---5---5---5---|-7---7---7---7---|
A|-7---7---7---7---|-7---7---7---7---|-----------------|-----------------|
E|-----------------|-----------------|-----------------|-----------------|
  “Eight  days       a week         is not en-ough  to  show I care”


[Outro]

G|-----4---7---4---|-7---4-----------|
D|-5---------------|---------7---4---|
A|-----------------|-----------------| 
E|-----------------|-----------------|(x2)

   --3-- --3-- --3-- --3--   --3-- --3-- --3-- --3--  
G|-7-7-7-7-7-7-7-7-7-7-7-7-|-7-7-7-7-7-7-7-7-7-7-7-7-|
D|-------------------------|-------------------------|
A|-------------------------|-------------------------| 
E|-------------------------|-------------------------|(x2)

G|-7~--------------|
D|-----------------|
A|-----------------|
E|-----------------|


Song Order:
[Intro]
[Verse 1]
[Chorus]
[Verse 2]
[Chorus]
[Bridge]
[Verse 1]
[Chorus]
[Bridge]
[Verse 2]
[Chorus]
[Outro]

************************************

| ~     Vibrato
| --3-- triplet    

************************************
Suggest correction
Creating personal tab
Creating personal tab
You can edit any tab online and save it as your Personal.

You can edit, replace or remove any tab part or add personal notes – all changes will be seen only by you.

Personal tabs can be accessed anytime from any device, even offline.
Learn more »
comments
print report bad tab
2 comments total.
+1 reply
nicodabassman 31 Jan 20, 2015 11:34 AM

Everything's an octive too high

0 reply
xsqueakydevli 10 Mar 14, 2017 06:40 PM

Looks good to me.

guest
You may want to rate the tab now too:
select rating
Wanna post a correction for this tab? Suggest correction