Oops, an error
Loading. Please wait.
We have an official Eleanor Rigby tab made by UG professional guitarists. Check out the tab »
×

Eleanor Rigby tab

version 9
version 9

Whole song

Video

118 views 3 this week
no commentswrite comment
1 2 3 4 5
3 more votes to show rating
add to favorites
×
Save as Personal and add changes to this tab that will be seen only by you. Learn more ›
×
You can save this tab as Personal to edit and correct it or add notes. All changes will be seen only by you. Learn more »
launch autoscroll
font size
0
reset
how to read this tab
guitar tuner
edit
Autoscroll
slow
fast
+/-
esc
set tempo
stop
Author
Difficulty
About this tab version
Easy to read and play, enjoyable to learn and helps re-live the Beatles music. Was this info helpful? Yes No
[Intro]
Ah,        look at all the lonely   people      (x2)
E|------------0-1-|3---1---0-------|----------------|
B|3---------------|------------3---|----------------|
G|----------------|----------------|2-0-------------|
D|----------------|----------------|----3-----------|
A|----------------|----------------|----------------|
E|----------------|----------------|----------------|

[Verse]
  Eleanor Rigby, picks up the rice 
E|----------------|----------------|
B|----------------|------1-----0---|
G|--0-2-----------|--0-2---------2-|
D|3-------3---0---|3---------------|
A|----------------|----------------|
E|----------------|----------------|

In the church where a wedding has been
E|----------------|----------------|
B|0---------------|----------------|
G|----2-0-2-0-----|0---------------|
D|------------3---|----------------|
A|----------------|----------------|
E|----------------|----------------|

Lives in a dream
E|----------------|
B|----------------|
G|--0-2---3---2---|
D|3---------------|
A|----------------|
E|----------------|

  Waits at the window, wearing the face 
E|----------------|----------------|
B|----------------|------1-----0---|
G|--0-2-----------|--0-2---------2-|
D|3-------3---0---|3---------------|
A|----------------|----------------|
E|----------------|----------------|

  That she keeps in a jar by the door
E|----------------|----------------|
B|0---------------|----------------|
G|----2-0-2-0-----|0---------------|
D|------------3---|----------------|
A|----------------|----------------|
E|----------------|----------------|

  Who is it for?
E|----------------|
B|----------------|
G|--0-2---3---2---|
D|3---------------|
A|----------------|
E|----------------|

[Chorus]
  All the lonely people where 
E|----------------|----------------|
B|----------------|----------------|
G|0-------0---2---|----------------|
D|----3-----------|3---0-------0---|
A|----------------|----------------|
E|----------------|----------------|
  Do they all come from?
E|----------------|----------------|
B|3---------------|----------------|
G|----2---0-------|----------------|
D|------------3---|0---------------|
A|----------------|----------------|
E|----------------|----------------|
  All the lonely people where
E|----------------|----------------|
B|----------------|----------------|
G|0-------0---2---|----------------|
D|----3-----------|3---0-------0---|
A|----------------|----------------|
E|----------------|----------------|
  Do they all belong?
E|1---------------|----------------|
B|----3-----------|----------------|
G|--------2---0---|----------------|
D|----------------|3---------------|
A|----------------|----------------|
E|----------------|----------------|

[Verse]
  Father McKenzie, writing the words
E|----------------|----------------|
B|----------------|------1-----0---|
G|--0-2-----------|--0-2---------2-|
D|3-------3---0---|3---------------|
A|----------------|----------------|
E|----------------|----------------|

  Of a sermon that no one will hear
E|----------------|----------------|
B|0---------------|----------------|
G|----2-0-2-0-----|0---------------|
D|------------3---|----------------|
A|----------------|----------------|
E|----------------|----------------|

  No one comes near
E|----------------|
B|----------------|
G|--0-2---3---2---|
D|3---------------|
A|----------------|
E|----------------|

  Look at him working, darning his socks
E|----------------|----------------|
B|----------------|------1-----0---|
G|--0-2-----------|--0-2---------2-|
D|3-------3---0---|3---------------|
A|----------------|----------------|
E|----------------|----------------|

  In the night when there's nobody there
E|----------------|----------------|
B|0---------------|----------------|
G|----2-0-2-0-----|0---------------|
D|------------3---|----------------|
A|----------------|----------------|
E|----------------|----------------|

  What does he care?
E|----------------|
B|----------------|
G|--0-2---3---2---|
D|3---------------|
A|----------------|
E|----------------|

[Chorus]
  All the lonely people where 
E|----------------|----------------|
B|----------------|----------------|
G|0-------0---2---|----------------|
D|----3-----------|3---0-------0---|
A|----------------|----------------|
E|----------------|----------------|
  Do they all come from?
E|----------------|----------------|
B|3---------------|----------------|
G|----2---0-------|----------------|
D|------------3---|0---------------|
A|----------------|----------------|
E|----------------|----------------|
  All the lonely people where
E|----------------|----------------|
B|----------------|----------------|
G|0-------0---2---|----------------|
D|----3-----------|3---0-------0---|
A|----------------|----------------|
E|----------------|----------------|
  Do they all belong?
E|1---------------|----------------|
B|----3-----------|----------------|
G|--------2---0---|----------------|
D|----------------|3---------------|
A|----------------|----------------|
E|----------------|----------------|

  Ah,        look at all the lonely   people      (x2)
E|------------0-1-|3---1---0-------|----------------|
B|3---------------|------------3---|----------------|
G|----------------|----------------|2-0-------------|
D|----------------|----------------|----3-----------|
A|----------------|----------------|----------------|
E|----------------|----------------|----------------|

  Eleanor Rigby, died in the church
E|----------------|----------------|
B|----------------|------1-----0---|
G|--0-2-----------|--0-2---------2-|
D|3-------3---0---|3---------------|
A|----------------|----------------|
E|----------------|----------------|

  And was buried along with her name
E|----------------|----------------|
B|0---------------|----------------|
G|----2-0-2-0-----|0---------------|
D|------------3---|----------------|
A|----------------|----------------|
E|----------------|----------------|

  Nobody came
E|----------------|
B|----------------|
G|--0-2---3---2---|
D|3---------------|
A|----------------|
E|----------------|

  Father McKenzie, wiping the dirt
E|----------------|----------------|
B|----------------|------1-----0---|
G|--0-2-----------|--0-2---------2-|
D|3-------3---0---|3---------------|
A|----------------|----------------|
E|----------------|----------------|

  From his hands as he walks from the grave
E|----------------|----------------|
B|0---------------|----------------|
G|----2-0-2-0-----|0---------------|
D|------------3---|----------------|
A|----------------|----------------|
E|----------------|----------------|

  No one was saved
E|----------------|
B|----------------|
G|--0-2---3---2---|
D|3---------------|
A|----------------|
E|----------------|


- = One Quarter of a Beat

            
            
Suggest correction
Creating personal tab
Creating personal tab
You can edit any tab online and save it as your Personal.

You can edit, replace or remove any tab part or add personal notes – all changes will be seen only by you.

Personal tabs can be accessed anytime from any device, even offline.
Learn more »
Give kudos to tab author, rate the tab!
1 2 3 4 5
comments
print report bad tab
guest
You may want to rate the tab now too:
select rating
Wanna post a correction for this tab? Suggest correction