Oops, an error
Loading. Please wait.

Every Little Thing Tab

version 2
version 2

Whole song

Interactive

13,142 views 3 this week
1 commentread comment
1 2 3 4 5
x 8
add to favorites
launch autoscroll
font size
0
reset
how to read this tab
guitar tuner
backing track
0:00
0:00
×
Best way to learn
"Every Little Thing"
Autoscroll
slow
fast
+/-
esc
set tempo
stop
Author
    ----------------------------------------------------------

    THE BEATLES - EVERY LITTLE THING (Lennon & McCartney) From 
                  BEATLES FOR SALE album (Released on December 
                  4th 1964.)

    ----------------------------------------------------------


    Tabbed by: PJVillanueva


 
    
    John said in his 1980 Playboy interview that the song was
    from Paul, but Mcartney never mentioned it. The structure 
    of the verse looks like John's, but the chorus has Paul's 
    typical long intervals. Both John and Paul sing in unison
    in the verses and in fifths and fourths in the chorus.
    Some people said that George was not at the studio during
    the recording and that John played lead, but this has not 
    been properly documented. George's Rickenbacker twelve st
    was boosted in the midrange and also double tracked.
  

 
    When I'm walking beside her
    People tell me I'm lucky
    Yes I know I'm a lucky guy

    I remember the first time
    I was lonely without her
    Yes I'm thinking about her now
 
    Every little thing she does                           
    She does for me, yeah                   
    And you know the things she does                     
    She does for me, ooooh
 
    When I'm with her I'm happy
    Just to know that she loves 
    Yes I know that she loves me now

    There is one thing I'm sure of
    I will love her forever
    For I know love will never die 

    Every little thing she does                           
    She does for me, yeah                   
    And you know the things she does                     
    She does for me, ooh



                                            (.

   e|------- 0------ 0----0- ----0--|0------ 0------ ------- -------|
   B|--------5-------5----3------2--|2-------3----------------------|
   G|--------6-H-7---6----4------2--|2-------4----------------------|
   D|-------------------------------|-------------------------------|
   A|-------------------------------|-------------------------------|
   E|-------------------------------|-------------------------------|


     00:03                                
     A                               D       E
   e|0------ 0---0-- 0---0-- 0---0--|2------ 0------ ----0-- 0------|
   B|2-------2---2---2---2---2---2--|3-------0-----------0---0---0--|
   G|2-------2---2---2---2---2---2--|2-------1-----------1---1---0--|
   D|2-------2---2---2---2---2---2--|0-------2-----------2---2---0--|
   A|0-------0---0---0---0---0---0--|--------2-----------2---2------|
   E|-------------------------------|--------0-----------0---0------|
             When    walking     beside      her
                 I'm

     A                               G       D
   e|0------ 0---0-- 0---0-- 0------|3------ 2------ ----2-- 2------|
   B|2-------2---2---2---2---2------|0-------3-----------3---3---0--|
   G|2-------2---2---2---2---2------|0-------2-----------2---2---0--|
   D|2-------2---2---2---2---2------|0-------0-----------0---0---0--|
   A|0-------0---0---0---0---0------|2------------------------------|
   E|-------------------------------|3------------------------------|
             People  tell  I'm lucky
                         me

     Bm              Bm7             E               A
   e|2------ 2------ 2------ 2------|0------ 0---0-- 0------ 0---0--|
   B|3-------3-------3-------3------|0-------0---0---2-------2---2--|
   G|4-------4-------2-------2------|1-------1---1---2-------2---2--|
   D|4-------4-------4-------4------|2-------2---2---2-------2---2--|
   A|2-------2-------2-------2------|2-------2---2---0-------0---0--|
   E|-------------------------------|0-------0---0------------------|


     00:15

   e|0------ 0---0-- 0---0-- 0---0--|2------ 0------ ----0-- 0------|
   B|2-------2---2---2---2---2---2--|3-------0-----------0---0---0--|
   G|2-------2---2---2---2---2---2--|2-------1-----------1---1---0--|
   D|2-------2---2---2---2---2---2--|0-------2-----------2---2---0--|
   A|0-------0---0---0---0---0---0--|--------2-----------2---2------|
   E|-------------------------------|--------0-----------0---0------|
             I   remember        the first   time



   e|0------ 0------ 0------ 0------|3------ 2------ 2---2-- 2------|
   B|2-------2-------2-------2------|0-------3-------3---3---3---0--|
   G|2-------2-------2-------2------|0-------2-------2---2---2---0--|
   D|2-------2-------2-------2------|0-------0-------0---0---0---0--|
   A|0-------0-------0-------0------|2------------------------------|
   E|-------------------------------|3------------------------------|
             I   was lonely      without     her



   e|2------ 2------ 2------ 2------|0------ 0------ 0------ 0---0--|
   B|3-------3-------3-------3------|0-------0-------2-------2---2--|
   G|4-------4-------2-------2------|1-------1-------2-------2---2--|
   D|4-------4-------4-------4------|2-------2-------2-------2---2--|
   A|2-------2-------2-------2------|2-------2-------0-------0---0--|
   E|-------------------------------|0-------0----------------------|
             Yes I'm thinking    about   her     now

     00:27
     A                               G
   e|0------ 0---0-- 0---0-- 0------|3------ 3------ 3---3-- 3------|
   B|2-------2---2---2---2---2------|0-------0-------0---0---0------|
   G|2-------2---2---2---2---2------|0-------0-------0---0---0------|
   D|2-------2---2---2---2---2------|0-------0-------0---0---0------|
   A|0-------0---0---0---0---0------|2-------2-------2---2---2------|
   E|-------------------------------|3-------3-------3---3---3------|
             Every   little          thing       she does 
   e|9------ ------- ------- -------|9-\-7-- ----7-- ----7-- -------|
   B10------------------------------10-\-8-----------8-------8------|
   G|9------------------------------|9-\-7--------------------------|
   D|-------------------------------|-------------------------------|
   A|-------------------------------|-------------------------------|
   E|-------------------------------|-------------------------------|
 


                                     A
   e|3---3-- 3------ 3---3-- 3------|0---0-- 0---0-- 0------ 0---0--|
   B|0---0---0-------0---0---0------|2---2---2---2---2-------2---2--|
   G|0---0---0-------0---0---0------|2---2---2---2---2-------2---2--|
   D|0---0---0-------0---0---0------|2---2---2---2---2-------2---2--|
   A|2---2---2-------2---2---2------|0---0---0---0---0-------0---0--|
   E|3---3---3-------3---3---3------|-------------------------------|
                 she does    for     me,             yeah
   e|------- ----7-- ----7-- -------|7-/-9-- ------- 7-/-9-- -------|
   B|----------------8-------8------|8-/10-----------8-/10----------|
   G|-------------------------------|7-/-9-----------7-/-9----------|
   D|-------------------------------|-------------------------------|
   A|-------------------------------|-------------------------------|
   E|-------------------------------|-------------------------------|


     00:34
                                     G
   e|0---0-- 0---0-- 0---0-- 0------|3------ 3------ 3---3-- 3------|
   B|2---2---2---2---2---2---2------|0-------0-------0---0---0------|
   G|2---2---2---2---2---2---2------|0-------0-------0---0---0------|
   D|2---2---2---2---2---2---2------|0-------0-------0---0---0------|
   A|0---0---0---0---0---0---0------|2-------2-------2---2---2------|
   E|-------------------------------|3-------3-------3---3---3------|
             And you know    the     things      she does
   e|------- ------- ------- -------|9-\-7-- ----7-- ----7-- -------|
   B|-------------------------------10-\-8-----------8-------8------|
   G|-------------------------------|9-\-7--------------------------|
   D|-------------------------------|-------------------------------|
   A|-------------------------------|-------------------------------|
   E|-------------------------------|-------------------------------|



                                     A
   e|3---3-- 3------ 3---3-- 3---3--|0------ 0---0-- 0------ 0---0--|
   B|0---0---0-------0---0---0---0--|2-------2---2---2-------2---2--|
   G|0---0---0-------0---0---0---0--|2-------2---2---2-------2---2--|
   D|0---0---0-------0---0---0---0--|2-------2---2---2-------2---2--|
   A|2---2---2-------2---2---2---2--|0-------0---0---0-------0---0--|
   E|3---3---3-------3---3---3---3--|-------------------------------|
                 she does    for     me,             oooohh
   e|------- ----7-- ------- -------|7-/-9-- ------- 7-/-9-- -------|
   B|----------------8--------------|8-/10-----------8-/10----------|
   G|-------------------------------|7-/-9-----------7-/-9----------|
   D|-------------------------------|-------------------------------|
   A|-------------------------------|-------------------------------|
   E|-------------------------------|-------------------------------|


     00:42                                               

   e|0------ 0---0-- ----0-- 0------|2------ 0------ ----0-- 0------|
   B|2-------2---2-------2---2------|3-------0-----------0---0---0--|
   G|2-------2---2-------2---2------|2-------1-----------1---1---0--|
   D|2-------2---2-------2---2------|0-------2-----------2---2---0--|
   A|0-------0---0-------0---0------|--------2-----------2---2------|
   E|-------------------------------|--------0-----------0---0------|
             When    with her    I'm happy     
                 I'm


   e|0------ 0---0-- 0------ 0------|3------ 2---2-- ----2-- 2------|
   B|2-------2---2---2-------2------|0-------3---3-------3---3---0--|
   G|2-------2---2---2-------2------|0-------2---2-------2---2---0--|
   D|2-------2---2---2-------2------|0-------0---0-------0---0---0--|
   A|0-------0---0---0-------0------|2------------------------------|
   E|-------------------------------|3------------------------------|
             Just    know        she loves   me
                 to      that 
  

   e|2------ 2------ 2------ 2------|0---0-- 0---0-- 0------ 0------|
   B|3-------3-------3-------3------|0---0---0---0---2-------2------|
   G|4-------4-------2-------2------|1---1---1---1---2-------2---2--|
   D|4-------4-------4-------4------|2---2---2---2---2-------2---2--|
   A|2-------2-------2-------2------|2---2---2---2---0-------0---0--|
   E|-------------------------------|0---0---0---0------------------|
             Yes I   know        she loves   me  now
                         that

     00:54

   e|0------ 0------ 0---0-- 0---0--|2------ 0------ ----0-- 0------|
   B|2-------2-------2---2---2---2--|3-------0-----------0---0---0--|
   G|2-------2-------2---2---2---2--|2-------1-----------1---1---0--|
   D|2-------2-------2---2---2---2--|0-------2-----------2---2---0--|
   A|0-------0-------0---0---0---0--|--------2-----------2---2------|
   E|-------------------------------|--------0-----------0---0------|
             There   one thing   I'm sure    of 
                 is


   e|0------ 0---0-- 0---0-- ----0--|3------ 2------ ----2-- 2------|
   B|2-------2---2---2---2-------2--|0-------3-----------3---3---0--|
   G|2-------2---2---2---2-------2--|0-------2-----------2---2---0--|
   D|2-------2---2---2---2-------2--|0-------0-----------0---0---0--|
   A|0-------0---0---0---0-------0--|2------------------------------|
   E|-------------------------------|3------------------------------|
             I   will    her     forever
                     love


   e|2------ 2------ 2------ 2------|0------ 0------ 0------ 0---0--|
   B|3-------3-------3-------3------|0-------0-------2-------2---2--|
   G|4-------4-------2-------2------|1-------1-------2-------2---2--|
   D|4-------4-------4-------4------|2-------2-------2-------2---2--|
   A|2-------2-------2-------2------|2-------2-------0-------0---0--|
   E|-------------------------------|0-------0----------------------|
             For I   know        will            die 
                         love        never

     01:06

   e|0------ 0------ 0------ 0---0--|3------ 3------ 3---3-- 3------|
   B|2-------2-------2-------2---2--|0-------0-------0---0---0------|
   G|2-------2-------2-------2---2--|0-------0-------0---0---0------|
   D|2-------2-------2-------2---2--|0-------0-------0---0---0------|
   A|0-------0-------0-------0---0--|2-------2-------2---2---2------|
   E|-------------------------------|3-------3-------3---3---3------|
             Every   little          thing       she does
   e|9------ ------- ------- -------|9-\-7-- ----7-- ----7-- -------|
   B10------------------------------10-\-8-----------8-------8------|
   G|9------------------------------|9-\-7--------------------------|
   D|-------------------------------|-------------------------------|
   A|-------------------------------|-------------------------------|
   E|-------------------------------|-------------------------------|

  


   e|3---3-- 3------ 3---3-- 3---3--|0---0-- 0---0-- 0------ 0---0--|
   B|0---0---0-------0---0---0---0--|2---2---2---2---2-------2---2--|
   G|0---0---0-------0---0---0---0--|2---2---2---2---2-------2---2--|
   D|0---0---0-------0---0---0---0--|2---2---2---2---2-------2---2--|
   A|2---2---2-------2---2---2---2--|0---0---0---0---0-------0---0--|
   E|3---3---3-------3---3---3---3--|-------------------------------|
                 she does    for     me,             yeah
   e|------- ----7-- ------- 7------|7-/-9-- ------- 7-/-9-- -------|
   B|----------------8-------8------|8-/10-----------8-/10----------|
   G|-------------------------------|7-/-9-----------7-/-9----------|
   D|-------------------------------|-------------------------------|
   A|-------------------------------|-------------------------------|
   E|-------------------------------|-------------------------------|


     

   e|0---0-- 0---0-- 0---0-- 0------|3------ 3------ 3---3-- 3------|
   B|2---2---2---2---2---2---2------|0-------0-------0---0---0------|
   G|2---2---2---2---2---2---2------|0-------0-------0---0---0------|
   D|2---2---2---2---2---2---2------|0-------0-------0---0---0------|
   A|0---0---0---0---0---0---0------|2-------2-------2---2---2------|
   E|-------------------------------|3-------3-------3---3---3------|
             And you know    the     things      she does
   e|------- ------- ------- -------|9-\-7-- ----7-- ------- -------|
   B|-------------------------------10-\-8-----------8--------------|
   G|-------------------------------|9-\-7--------------------------|
   D|-------------------------------|-------------------------------|
   A|-------------------------------|-------------------------------|
   E|-------------------------------|-------------------------------|




   e|3---3-- 3------ 3---3-- 3---3--|0------ 0---0-- 0------ 0---0--|
   B|0---0---0-------0---0---0---0--|2-------2---2---2-------2---2--|
   G|0---0---0-------0---0---0---0--|2-------2---2---2-------2---2--|
   D|0---0---0-------0---0---0---0--|2-------2---2---2-------2---2--|
   A|2---2---2-------2---2---2---2--|0-------0---0---0-------0---0--|
   E|3---3---3-------3---3---3---3--|-------------------------------|
                 she does    for     me,             oooohh
   e|------- ----7-- ------- -------|7-/-9-- ------- 7-/-9-- -------|
   B|----------------8-------8------|8-/10-----------8-/10----------|
   G|-------------------------------|7-/-9-----------7-/-9----------|
   D|-------------------------------|-------------------------------|
   A|-------------------------------|-------------------------------|
   E|-------------------------------|--------------------0---2---4--|

     SOLO
     01:21

   e|0------ 0------ 0------ 0---0--|2------ 0------ ----0-- 0------|
   B|2-------2-------2-------2---2--|3-------0-----------0---0------|
   G|2-------2-------2-------2---2--|2-------1-----------1---1------|
   D|2-------2-------2-------2---2--|0-------2-----------2---2------|
   A|0-------0-------0-------0---0--|--------2-----------2---2------|
   E|-------------------------------|--------0-----------0---0------|

   e|------- 0------ 0---0-- ----0--|0------ 0------ ------- -------|
   B|--------5-------5---3-------2--|2-------3----------------------|
   G|--------6-H-7---6---4-------2--|2-------4----------------------|
   D|-------------------------------|-------------------------------|
   A|0------------------------------|-------------------------------|
   E|-------------------------------|-------------------------------|

   e|------- 0---0-- 0---0-- ----0--|0------ 0------ ------- -------|
   B|-------14-/15--14--12------10--10---/--12----------------------|
   G|-------------------------------|-------------------------------|
   D|-------------------------------|-------------------------------|
   A|-------------------------------|-------------------------------|
   E|-------------------------------|-------------------------------|





   e|0------ 0---0-- 0---0-- 0---0--|3------ 2------ 2---2-- ----2--|
   B|2-------2---2---2---2---2---2--|0-------3-------3---3-------3--|
   G|2-------2---2---2---2---2---2--|0-------2-------2---2-------2--|
   D|2-------2---2---2---2---2---2--|0-------0-------0---0-------0--|
   A|0-------0---0---0---0---0---0--|2------------------------------|
   E|-------------------------------|3------------------------------|

   e|------- 0------ 0---0-- ----0--|------- ------- ------- -------|
   B|--------5-------5---3-------2--|3-------3----------------------|
   G|--------6-H-7---6---4-------2--|4-------2----------------------|
   D|-------------------------------|5-------4----------------------|
   A|-------------------------------|-------------------------------|
   E|-------------------------------|-------------------------------|

   e|------- 0---0-- 0---0-- ----0--|------- ------- ------- -------|
   B|-------14--15--14--12------10--12------10----------------------|
   G|-------------------------------12------11----------------------|
   D|-------------------------------12------12----------------------|
   A|-------------------------------|-------------------------------|
   E|-------------------------------|-------------------------------|





   e|2------ 2---2-- 2------ 2------|0------ 0---0-- 0------ 0---0--|
   B|3-------3---3---3-------3------|0-------0---0---2-------2---2--|
   G|4-------4---4---2-------2------|1-------1---1---2-------2---2--|
   D|4-------4---4---4-------4------|2-------2---2---2-------2---2--|
   A|2-------2---2---2-------2------|2-------2---2---0-------0---0--|
   E|-------------------------------|0-------0---0------------------|

   e|------- ------- ------- -------|------- ------- 0------ -------|
   B|-----3---------------3---------|-----0----3-----2--------------|
   G|4---------4-----2---------2----|1------------------------------|
   D|-------------------------------|-------------------------------|
   A|-------------------------------|-------------------------------|
   E|-------------------------------|-------------------------------|

   e|------- ------- ------- -------|------- ------- ------- -------|
   B|3----3----3-----3----3----3----|0----0----3-----2--------------|
   G|-------------------------------|----------------2--------------|
   D|-------------------------------|-------------------------------|
   A|-------------------------------|-------------------------------|
   E|-------------------------------|-------------------------------|



     01:33                                                          

   e|0------ 0------ 0------ 0---0--|3------ 3------ 3---3-- 3------|
   B|2-------2-------2-------2---2--|0-------0-------0---0---0------|
   G|2-------2-------2-------2---2--|0-------0-------0---0---0------|
   D|2-------2-------2-------2---2--|0-------0-------0---0---0------|
   A|0-------0-------0-------0---0--|2-------2-------2---2---2------|
   E|-------------------------------|3-------3-------3---3---3------|
             Every   little          thing       she does
   e|------- ------- ------- -------|9-\-7-- ----7-- ------- -------|
   B|-------------------------------10-\-8-------------------8------|
   G|-------------------------------|9-\-7--------------------------|
   D|-------------------------------|-------------------------------|
   A|-------------------------------|-------------------------------|
   E|-------------------------------|-------------------------------|

  


   e|3---3-- 3------ 3---3-- 3------|0---0-- 0---0-- 0---0-- 0---0--|
   B|0---0---0-------0---0---0------|2---2---2---2---2---2---2---2--|
   G|0---0---0-------0---0---0------|2---2---2---2---2---2---2---2--|
   D|0---0---0-------0---0---0------|2---2---2---2---2---2---2---2--|
   A|2---2---2-------2---2---2------|0---0---0---0---0---0---0---0--|
   E|3---3---3-------3---3---3------|-------------------------------|
                 she does    for     me,             yeah
   e|------- ----7-- ------- -------|7-/-9-- ------- 7-/-9-- ----9--|
   B|------------------------8------|8-/10-----------8-/10------10--|
   G|-------------------------------|7-/-9-----------7-/-9-------9--|
   D|-------------------------------|-------------------------------|
   A|-------------------------------|-------------------------------|
   E|-------------------------------|-------------------------------|


     

   e|0---0-- 0---0-- 0---0-- 0---0--|3------ 3------ 3------ 3------|
   B|2---2---2---2---2---2---2---2--|0-------0-------0-------0------|
   G|2---2---2---2---2---2---2---2--|0-------0-------0-------0------|
   D|2---2---2---2---2---2---2---2--|0-------0-------0-------0------|
   A|0---0---0---0---0---0---0---0--|2-------2-------2-------2------|
   E|-------------------------------|3-------3-------3-------3------|
             And you know    the     things      she does
   e|------- ------- ------- -------|9-\-7-- ----7-- ------- ----7--|
   B|-------10----------------------10-\-8-----------8--------------|
   G|--------9----------------------|9-\-7--------------------------|
   D|-------------------------------|-------------------------------|
   A|-------------------------------|-------------------------------|
   E|-------------------------------|-------------------------------|




   e|3---3-- 3------ 3------ 3------|0------ 0---0-- 0---0-- 0---0--|
   B|0---0---0-------0-------0------|2-------2---2---2---2---2---2--|
   G|0---0---0-------0-------0------|2-------2---2---2---2---2---2--|
   D|0---0---0-------0-------0------|2-------2---2---2---2---2---2--|
   A|2---2---2-------2-------2------|0-------0---0---0---0---0---0--|
   E|3---3---3-------3-------3------|-------------------------------|
                 she does    for     me,             oooohh
   e|------- ----7-- ----7-- -------|7-/-9-- ------- 7-/-9-- -------|
   B|----------------8-------8------|8-/10-----------8-/10----------|
   G|-------------------------------|7-/-9-----------7-/-9----------|
   D|-------------------------------|-------------------------------|
   A|-------------------------------|-------------------------------|
   E|-------------------------------|-------------------------------|


     01:48               
                     
   e|0------ ----0-- 0---0-- 0---0--|2------ 0------ 0------ 0------|
   B|2-----------2---2---2---2---2--|3-------0-------0-------0------|
   G|2-----------2---2---2---2---2--|2-------1-------1-------1------|
   D|2-----------2---2---2---2---2--|0-------2-------2-------2------|
   A|0-----------0---0---0---0---0--|--------2-------2-------2------|
   E|-------------------------------|--------0-------0-------0------|
                                                     Every   little
   e|------- 0------ 0----0- ----0--|0------ 0------ ------- -------|
   B|--------5-------5----3------2--|2-/-3---3----------------------|
   G|--------6-H-7---6----4------2--|2-/-4---4----------------------|
   D|-------------------------------|-------------------------------|
   A|-------------------------------|-------------------------------|
   E|-------------------------------|-------------------------------|




   e|0------ ----0-- ----0-- 0---0--|2------ 0------ 0------ 0------|
   B|2-----------2-------2---2---2--|3-------0-------0-------0------|
   G|2-----------2-------2---2---2--|2-------1-------1-------1------|
   D|2-----------2-------2---2---2--|0-------2-------2-------2------|
   A|0-----------0-------0---0---0--|--------2-------2-------2------|
   E|-------------------------------|--------0-------0-------0------|
     thing                                           Every   little
   e|------- 0------ 0----0- ----0--|0------ 0------ ------- -------|
   B|--------5-------5----3------2--|2-/-3---3----------------------|
   G|--------6-H-7---6----4------2--|2-/-4---4----------------------|
   D|-------------------------------|-------------------------------|
   A|-------------------------------|-------------------------------|
   E|-------------------------------|-------------------------------|
     .......................... Fade out ...........................




   e|0------ 0---0-- ----0-- 0---0--|2------ 0------ ------- -------|
   B|2-------2---2-------2---2---2--|3-------0----------------------|
   G|2-------2---2-------2---2---2--|2-------1----------------------|
   D|2-------2---2-------2---2---2--|0-------2----------------------|
   A|0-------0---0-------0---0---0--|--------2----------------------|
   E|-------------------------------|--------0----------------------|
     thing
   e|------- 0------ 0----0- ----0--|0------ 4------ ------- -------|
   B|--------5-------5----3------2--|2-/-3---3----------------------|
   G|--------6-H-7---6----4------2--|2-/-4---4----------------------|
   D|-------------------------------|-------------------------------|
   A|-------------------------------|-------------------------------|
   E|-------------------------------|-------------------------------|
     .........................................







        B  Bend
        R  Release
        /  Slide up
        \  Slide down
        H  Hammer-on
        P  Pull-off
        ~  Vibrato
        +  Harmonic
        x  Mute note
        .  Play note like a dot in standard notation
        ^  Ties two notes together
        (. Pause



       
Suggest correction
comments
print report bad tab
1 comment total.
0 reply
awesomesiler 10 Oct 20, 2016 09:41 AM

Great tab keep it up!

guest
You may want to rate the tab now too:
select rating
Wanna post a correction for this tab? Suggest correction