Oops, an error
Loading. Please wait.

Free As A Bird tab

version 1
version 1

Whole song

Interactive

76,359 views 54 this week
4 commentsread comments
1 2 3 4 5
x 14
add to favorites
×
Save as Personal and add changes to this tab that will be seen only by you. Learn more ›
×
You can save this tab as Personal to edit and correct it or add notes. All changes will be seen only by you. Learn more »
launch autoscroll
font size
0
reset
how to read this tab
guitar tuner
edit
Autoscroll
slow
fast
+/-
esc
set tempo
stop
Author
Unregistered
[Chords]
A: x02220        F#m: 244222   Dm: xx0231      E: 022100
G: 320003        C: x32010     Esus4: 022200   Fmaj7: x32210
F#m7b5: 202210   A/G: 3x2220   Am: x02210      Fm: 133111

 [Intro w/slide]
    A     F#m       Dm      E        A      F#m        Dm      E
e|----------------|----------------|----------------|-------------------|
B|-/5~~~~~~~~~~~~~|~~~~~~----5\1/2-|----------------|-------------------|
G|----------------|----------------|-/2~~~~~~~~~~~~~|~~~~----(4\)2/7-\5-|
D|----------------|----------------|----------------|-------------------|
A|----------------|----------------|----------------|-------------------|
E|----------------|----------------|----------------|-------------------|

    A     F#m       Dm     G         C      Am        Esus4     E                
e|----------------|----------------|----------------|----------------|
B|----------------|------5-8\5/6/8(\)5~~~~~~~~~~~~~~|----------------|
G|-/2~~~~~~~~~~~~~|----------------|----------------|----------------|
D|----------------|----------------|----------------|----------------|
A|----------------|----------------|----------------|----------------|
E|----------------|----------------|----------------|----------------|

[Verse 1]
A F#m Dm E     A   F#m
Free     as a bird
Dm       E          A        F#m
It's the next best thing to be
Dm   G    C    Am   Esus4  E
Free as a bird

A    F#m  Dm  E        A   F#m
Home,         home and dry
Dm     E      A         F#m
Like a homing bird I¼ll fly
Dm   G       C    Am   Esus4  E
As a bird on wings

[Bridge 1]
Fmaj7                 F#m7b5
What ever happened to the life that we once knew
G                     A         A/G
Can we really live without each other
Fmaj7                         F#m7b5
Where did we loose the touch, that seemed to mean so much
G                 E
It always made me feel so

[Verse 1]
A F#m Dm E     A   F#m
Free     as a bird
Dm       E          A        F#m
It's the next best thing to be
Dm   G    C    Am   Esus4  E
Free as a bird


A    F#m  Dm  E        A   F#m
Home,         home and dry
Dm     E      A         F#m
Like a homing bird I¼ll fly
Dm   G       C    Am   Esus4  E
As a bird on wings

[Bridge 2]
Fmaj7                 F#m7b5
What ever happened to the life that we once knew
G               E
Always made me feel so free

 [Guitar Solo w/slide]
    C      Am       Fm        G        C      Am       Fm       G
e|----------------|----------------|----------------|----------------|
B|-/17~~~~~~~~~~~-|--------18/20---|-20\17~~~~~~~~~~|-13/16\15--8/---|
G|----------------|----------------|----------------|----------------|
D|----------------|----------------|----------------|----------------|
A|----------------|----------------|----------------|----------------|
E|----------------|----------------|----------------|----------------|

   C         Am       Fm        G      A     F#m ...
e|-12--12/17\12-----|-8/11\10---3--|---9~~~~~--------|
B|------------------|--------------|-----------------|
G|------------------|--------------|-/9--------------|
D|------------------|--------------|-----------------|
A|------------------|--------------|-----------------|
E|------------------|--------------|-----------------|
                                        Free...

A F#m Dm E     A   F#m
Free     as a bird
Dm       E           A      F#m
It's the next best thing to be

 [Coda w/slide]
   Dm      G        A      F#m     Dm      E       A      F#m
e|---------------|---------------|---------------|---------------|
B|---------------|-/5-----(1)/2--|---------------|-----5------/7-|
G|---------------|---------------|-/2------------|---------------|
D|---------------|---------------|---------------|---------------|
A|---------------|---------------|---------------|---------------|
E|---------------|---------------|---------------|---------------|
   Free   as a    bird                Free as a    bird

   Dm      E       A      F#m      Dm     G         A  (w/o slide)
e|---------------|---------------|---------------|---------------||
B|--/1-----------|--/5----(1)/2--|---------------|--2------------||
G|---------------|---------------|-/2------------|--2------------||
D|---------------|---------------|---------------|--2------------||
A|---------------|---------------|---------------|--0------------||
E|---------------|---------------|---------------|---------------||
     Free as a    bird               Oh______________.

************************************

| /  Slide up
| \  Slide down
| ~  Vibrato
|(n) Ghost note

************************************

            
            
Suggest correction
Creating personal tab
Creating personal tab
You can edit any tab online and save it as your Personal.

You can edit, replace or remove any tab part or add personal notes – all changes will be seen only by you.

Personal tabs can be accessed anytime from any device, even offline.
Learn more »
comments
print report bad tab
4 comments total. Showing first comments.
-1 reply
dansety 15 Feb 04, 2002 07:00 PM

this song is totally tabbbed wrong, the very beginning should start with the third fret, making it a twelve bar.

Dvt

+3 reply
PeteSmith92 52 May 23, 2007 12:08 PM

It sounds right to me.

-2 reply
guiney 10 Jul 24, 2007 12:33 AM

its in the wrong key

guest
Wanna post a correction for this tab? Suggest correction