Oops, an error
Loading. Please wait.
We have an official Get Back tab made by UG professional guitarists. Check out the tab »
×
283,513 views 135 this week
10 commentsread comments
1 2 3 4 5
x 43
add to favorites
×
Save as Personal and add changes to this tab that will be seen only by you. Learn more ›
×
You can save this tab as Personal to edit and correct it or add notes. All changes will be seen only by you. Learn more »
launch autoscroll
font size
0
reset
how to read this tab
guitar tuner
backing track
0:00
0:00
edit
Autoscroll
slow
fast
+/-
esc
set tempo
stop
Author
------------------------------------------------------------------

  THE BEATLES - GET BACK (Lennon/McCartney) Released in the U.K.as 
                a single (With DON'T LET ME DOWN as B side) 11th 
                April 1969.

------------------------------------------------------------------

  Tabbed by:PJVillanueva

 
  4/4 Time
                                     
  A5
e|-------------------------------|-------------------------------|
B|-------------------------------|-------------------------------|
G|-------------------------------|-------------------------------|
D|2-------2---2---2---2---2---2--|2-------2-------2---2---2---2--|
A|0-------0---0---0---0---0---0--|0-------0-------0---0---0---0--|
E|-------------------------------|-------------------------------|

e|-------------------------------|-------------------------------|
B|-------------------------------|-------------------------------|
G|----2-------2-------2-------2--|----2-------2-------2-------2--|
D|----2-------2-------2-------2--|----2-------2-------2-------2--|
A|----0-------0-------0-------0--|----0-------0-------0-------0--|
E|-------------------------------|-------------------------------|


                                                  G       D
e|-------------------------------|-------------------------------|
B|-------------------------------|-------------------------------|
G|-------------------------------|-------------------------------|
D|2---2---2-------2---2---2---2--|2---2---2-------0-------0------|
A|0---0---0-------0---0---0---0--|0---0---0-------2-------0------|
E|-------------------------------|----------------3-------2------|

e|-------------------------------|--------------- 3------ 2------|
B|-------------------------------|----------------3-------3------|
G|----2-------2-------2-------2--|2---2---2-------0-------2------|
D|----2-------2-------2-------2--|2---2---2-------0-------0------|
A|----0-------0-------0-------0--|0---0---0-------2--------------|
E|-------------------------------|----------------3--------------|


  A5      A6      A5 ...
e|-------------------------------|-------------------------------|
B|-------------------------------|-------------------------------|
G|-------------------------------|-------------------------------|
D|2-------4-------2-------4------|2-------4-------2-------4---/--|
A|0-------0-------0-------0------|0-------0-------0-------0------|
E|-------------------------------|-------------------------------|
  Jojo    was a   man     who thought he  was a   loner       But
e|-------------------------------|-------------------------------|
B|-------------------------------|-------------------------------|
G|2-------2-------2-------2---2--|--------2---2-----------2------|
D|2-------2-------2-------2---2--|--------2---2-----------2------|
A|0-------0-------0-------0---0--|--------0---0-----------0------|
E|-------------------------------|-------------------------------|


  D5      D6      D5 ...          A5
e|-------------------------------|-------------------------------|
B|-------------------------------|-------------------------------|
G|2-------4-------2-------4------|-------------------------------|
D|0-------0-------0-------0------|-------------------------------|
A|-------------------------------|-------------------------------|
E|-------------------------------|-------------------------------|
      he  knew it wouldn't    last.
e|-------------------------------|-------------------------------|
B|----3-------3-------3-------3--|-------------------------------|
G|----2-------2-------2-------2--|2-----------2---------------2--|
D|----0-------0-------0-------0--|2-----------2---------------2--|
A|-------------------------------|0-----------0---------------0--|
E|-------------------------------|-------------------------------|


  A
e|-------------------------------|-------------------------------|
B|-------------------------------|-------------------------------|
G|-------------------------------|-------------------------------|
D|----2---4-------2-------4------|2-------4-------2-------4---2-/|
A|----0---0-------0-------0------|0-------0-------0-------0---0-/|
E|----0--------------------------|-------------------------------|
  Jojo    left his home   in Tucson,      Arizona             for
e|-------------------------------|-------------------------------|
B|-------------------------------|----------------------------3--|
G|----2-------2---------------2--|----2-------2-------2-------2--|
D|----2-------2---------------2--|----2-------2-------2-------0--|
A|----0-------0---------------0--|----0-------0-------0----------|
E|-------------------------------|-------------------------------|


  D                               A           
e|-------------------------------|------------12-----------------|
B|-------------------------------|----10--12B14---14R1210--------|
G|2-------4-------2--------------/11----------------------11-----|
D|0-------0-------0-------4------|-------------------------------|
A|------------------------0------|-------------------------------|
E|-------------------------------|-------------------------------|
     some Cali....for.....nia grass.                      Get back
e|-------------------------------|-------------------------------|
B|----3-------3-------3----------|-------------------------------|
G|----2-------2-------2-------2--|----2-------2-------2----------|
D|----0-------0-------0-------2--|----2-------2-------2----------|
A|----------------------------0--|----0-------0-------0----------|
E|-------------------------------|-------------------------------|


                     (A7)
e|--------------------9-9 9-9-9--|--------------------9-9 9-9-9--|
B|--------------------8-8-8-8-8--|--------------------8-8-8-8-8--|
G|--------------------9-9-9-9-9--|--------------------9-9-9-9-9--|
D|------------7------------------|------------7------------------|
A|----7---9----------------------|-----7--9----------------------|
E/9------------------------------/9------------------------------|
                          Get back                        Get back
e|-------------------------------|-------------------------------|
B|-------------------------------|-------------------------------|
G|----2-------2------------------|2-------2-------2-------2------|
D|----2-------2------------------|2-------2-------2-------2------|
A|----0-------0------------------|0-------0-------0-------0------|
E|-------------------------------|-------------------------------|


                     (D7)                            (A7)
e|--------------------8-8 8-8-8--|--------------------9-9 9-9-9--|
B|--------------------7-7-7-7-7--|--------------------8-8-8-8-8--|
G|--------------------7-7-7-7-7--|--------------------9-9-9-9-9--|
D|------------7------------------|------------7------------------|
A|----7---9----------------------|----7---9----------------------|
E/9------------------------------/9------------------------------|
      To  where you once  belonged                        Get back
e|-------------------------------|------------------3---- 2------|
B|3-------3-------3-------3------|------------------3-----3------|
G|2-------2-------2-------2------|2---2-------2-----0-----2------|
D|0-------0-------0-------0------|2---2-------2-----0-----0------|
A|-------------------------------|0---0-------0-----2------------|
E|-------------------------------|------------------3------------|



e|--------------------9-9 9-9-9--|--------------------9-9 9-9-9--|
B|--------------------8-8-8-8-8--|--------------------8-8-8-8-8--|
G|--------------------9-9-9-9-9--|--------------------9-9-9-9-9--|
D|------------7------------------|------------7------------------|
A|----7---9----------------------|-----7--9----------------------|
E/9------------------------------/9------------------------------|
                          Get back                        Get back
e|------------3------------------|------------3------------------|
B|------------2------------------|------------2------------------|
G|------------0------------------|------------0------------------|
D|------------2------------------|2---2-------2------------------|
A|------------0------------------|0---0-------0------------------|
E|-------------------------------|-------------------------------|

e|-------------------------------|-------------------------------|
B|-------------------------------|-------------------------------|
G|------------5------------------|------------5------------------|
D|------------5------------------|------------5------------------|
A|------------0------------------|------------0------------------|
E|-------------------------------|-------------------------------|


                      D7          A
e|--------------------8-8 8-8-8--|-------------------------------|
B|--------------------7-7-7-7-7--|-------------------------------|
G|--------------------7-7-7-7-7--|-------------------------------|
D|------------7------------------|------------7------------------|
A|----7---9----------------------|----7---9----------------------|
E/9------------------------------/9------------------------------|
      To  where you once  belonged            Get back JoJo
e|-------------------------------|-------------------------------|
B|3---3-------3-------3----------|-------------------------------|
G|2---2-------2-------2-------2--|----2------2--------2-------2--|
D|0---0-------0-------0-------2--|----2------2--------2-------2--|
A|----------------------------0--|----0------0--------0-------0--|
E|-------------------------------|-------------------------------|



e|-------------------------------|----12-------------------------|
B|----10--10--10------10--12--12B|14----------14-R12--10------10-\
G|11-----------------------------|------------------------11-----|
D|-------------------------------|-------------------------------|
A|-------------------------------|-------------------------------|
E|-------------------------------|-------------------------------|

e|-------------------------------|-------------------------------|
B|-------------------------------|-------------------------------|
G|2-------2-------2-------2------|2-------2-------2-------2------|
D|2-------2-------2-------2------|2-------2-------2-------2------|
A|0-------0-------0-------0------|0-------0-------0-------0------|
E|-------------------------------|-------------------------------|


  D                               A               G       D
e|-------------------------------|-------------------------------|
B|-------------------------------|-------------------------------|
G|------------7-------5-------5--B---6---------------------------|
D|----7-------------------7------|-------------------------------|
A|9-------9----------------------|-------------------------------|
E|-------------------------------|-------------------------------|

e|-------------------------------|--------------- 3------ 2------|
B|--------3---------------3------|----------------3-------3------|
G|--------2---------------2------|--------2-------0-------2------|
D|--------0---------------0------|--------2-------0-------0------|
A|-------------------------------|--------0-------2--------------|
E|-------------------------------|----------------3--------------|


  A
e|-------------------------------|----12-------------------------|
B|--10---10---10---10---------12-12B14--------14-R12--10------10-\
G/11-----------------------------|------------------------11-----|
D|-------------------------------|-------------------------------|
A|-------------------------------|-------------------------------|
E|-------------------------------|-------------------------------|

e|-------------------------------|-------------------------------|
B|-------------------------------|-------------------------------|
G|2-------2-------2-------2------|2-------2-------2-------2------|
D|2-------2-------2-------2------|2-------2-------2-------2------|
A|0-------0-------0-------0------|0-------0-------0-------0------|
E|-------------------------------|-------------------------------|


  D                               A               G       D
e|-------------------------------|-------------------------------|
B|-------------------------------|----7B8-5----------------------|
G|------------7-------5-------5--B-6----------5---7B9-5---5------|
D|----7---9---------------7------|----------7-----------7--------|
A|9------------------------------|-------------------------------|
E|-------------------------------|-------------------------------|
                                                          Get back
e|-------------------------------|--------------- 3------ 2------|
B|3-------3-------3--------------|----------------3-------3------|
G|2-------2-------2--------------|2-------2-------0-------2------|
D|0-------0-------0--------------|2-------2-------0-------0------|
A|-------------------------------|0-------0-------2--------------|
E|-------------------------------|----------------3--------------|


  A
e|-------------------------------|-------------------------------|
B|-------------------------------|-------------------------------|
G|-------------------------------|-------------------------------|
D|2-------4-------5-------4------|--------4-------5-------4------|
A|0-------0-------0-------0------|--------0-------0-------0---/--|
E|-------------------------------|-------------------------------|
                          Get back                        Get back
e|-------------------------------|-------------------------------|
B|-------------------------------|-------------------------------|
G|--------2-------2--------------|----2-------2-------2-------2--|
D|--------2-------2--------------|----2-------2-------2-------2--|
A|--------0-------0--------------|----0-------0-------0-------0--|
E|-------------------------------|-------------------------------|

e|-------------------------------|-------------------------------|
B|-------------------------------|-------------------------------|
G|------------5------------------|------------5------------------|
D|------------5------------------|------------5------------------|
A|------------0------------------|------------0------------------|
E|-------------------------------|-------------------------------|


  D                               A               G       D
e|-------------------------------|-------------------------------|
B|-------------------------------|-------------------------------|
G|2-------4-------2-------2------|-------------------------------|
D|0-------0-------0-------0------|2-------4-------5--------------|
A|-------------------------------|0-------0-------0--------------|
E|-------------------------------|-------------------------------|
      To where you once   belonged                        Get back
e|-------------------------------|--------------- 3------ 2------|
B|----3-------3-------3-------3--|----------------3-------3------|
G|----2-------2-------2-------2--|2---------------0-------2------|
D|----0-------0-------0-------0--|2---------------0-------0------|
A|-------------------------------|0---------------2--------------|
E|-------------------------------|----------------3--------------|


  A
e|-------------------------------|-------------------------------|
B|-------------------------------|-------------------------------|
G|-------------------------------|-------------------------------|
D|2-------4-------5-------4------|2-------4-------2-------4------|
A|0-------0-------0-------0------|0-------0-------0-------0------|
E|-------------------------------|-------------------------------|
                          Get back                        Get back
e|------------5------------------|------------5------------------|
B|------------8------------------|------------5------------------|
G|------------6------------------|------------6------------------|
D|------------5------------------|------------5------------------|
A|------------7------------------|------------7------------------|
E|------------5------------------|----5---5---5------------------|

e|-------------------------------|-------------------------------|
B|-------------------------------|-------------------------------|
G|------------5------------------|------------5------------------|
D|------------5------------------|------------5------------------|
A|------------0------------------|------------0------------------|
E|-------------------------------|-------------------------------|


                          C   D
e|-------------------------------|-------------------------------|
B|------------------------5-/-7--|-------------------------------|
G|------------------------5-/-7--|-------------------------------|
D|2-------4-------2-------5-/-7--|-------------------------------|
A|0-------0-------0-------3-/-5--|-------------------------------|
E|-------------------------------|-------------------------------|
      To where you once   belonged                     
e|----------------------------2--|-------------------------------|
B|----------------------------3--|-------------------------------|
G|----2-------2---------------2--|-------------------------------|
D|----2-------2---------------0--|-------------------------------|
A|----0-------0------------------|-------------------------------|
E|-------------------------------|-------------------------------|

e|-------------------------------|-------------------------------|
B|-------------------------------|--------7-----------5----------|
G|-------------------------------|-------------------------------|
D|------------------------------5/7-----------5-----------4------|
A|-------------------------------|-------------------------------|
E|-------------------------------|-------------------------------|



e|-------------------------------|
B|3-----------1-------0----------|
G|----------------------------2--|
D|----2-----------0--------------|
A|------------------------3------|
E|-------------------------------|


[Piano solo]

  A
e|-------------------------------|-------------------------------|
B|-------------------------------|-------------------------------|
G|-------------------------------|-------------------------------|
D|2-------4-------2-------4------|2-------4-------2-------4---2-/|
A|0-------0-------0-------0------|0-------0-------0-------0---0--|
E|-------------------------------|-------------------------------|

e|-------------------------------|-------------------------------|
B|---10-----10----10--10--10-10--|---10-----10-------------------|
G|----9------9-11--9---9-/11--9--|----9------9--9---------9---9--|
D|-------------------------------|--------------9H10P9P7------7--|
A|-------------------------------|------------------------9------|
E|-------------------------------|-------------------------------|


  D                               A               G       D
e|-------------------------------|--------------------9-9 9-9-9--|
B|-------------------------------|--------------------8-8-8-8-8--|
G|2-------4---2---2-------4------|--------------------9-9-9-9-9--|
D|0-------0---0---0-------0------|------------7------------------|
A|-------------------------------|----7---9----------------------|
E|-------------------------------/9------------------------------|

e|-------------------------------|--------------- 0--------------|
B|-------------------------------|--------2-------0-------3------|
G|-------------------------------|--------2-------0-------2------|
D|-------------------------------|--------2-------0-------0------|
A|-------------------------------|--------0-------2--------------|
E|-------------------------------|----------------3--------------|

e|-------------------------------|-------------------------------|
B|----7-------7------------------|-------------------------------|
G|----7--------7--7-------5------|-------------------------------|
D|--------------7-7---5---5---7--|----7--------------------------|
A|----------------------------7--|----7--------------------------|
E|-------------------------------|-------------------------------|



  A
e|-------------------------------|-------------------------------|
B|-------------------------------|-------------------------------|
G|-------------------------------|-------------------------------|
D|2-------4-------2-------4------|2-------4-------2-------4---/--|
A|0-------0-------0-------0------|0-------0-------0-------0------|
E|-------------------------------|-------------------------------|

e|-------------------------------|-------------------------------|
B|----10--10---10---10-10----10--|---10------10------------------|
G|9-11-9---9----9----9--9/11--9--|----9H11----9-9---------9---9--|
D|-------------------------------|--------------9H10P9P7------7--|
A|-------------------------------|------------------------9------|
E|-------------------------------|-------------------------------|


  D                               A               G       D
e|-------------------------------|--------------------9-9 9-9-9--|
B|-------------------------------|--------------------8-8-8-8-8--|
G|2-------4-------2-------4------|--------------------9-9-9-9-9--|
D|0-------0-------0-------0------|------------7------------------|
A|-------------------------------|----7---9----------------------|
E|-------------------------------/9------------------------------|

e|-------------------------------|--------------- 0------ 0------|
B|3-------3---3---3--------------|----------------0-------3------|
G|2-------2---2---2--------------|----------------0-------2------|
D|0-------0---0---0--------------|----------------0-------0------|
A|-------------------------------|----------------2--------------|
E|-------------------------------|----------------3--------------| 

e|-------------------------------|-------------------------------|
B|----7-------7------------------|---10-----------8--------------|
G|----7--------7--7-------5------|----9-----------7--------------|
D|--------------7-7---5---5---7--|----------------7--------------|
A|----------------------------7--|----------------7--------------|
E|-------------------------------|-------------------------------|


  A
e|-------------------------------|-------------------------------|
B|-------------------------------|-------------------------------|
G|-------------------------------|-------------------------------|
D|2-------4-------2-------4------|2-------4-------2---2---4---2--|
A|0-------0-------0-------0------|0-------0-------0---0---0---0--|
E|-------------------------------|-------------------------------|
  Sweet Loretta   Martin      thought she was a   woman       but
e|-------------------------------|-------------------------------|
B|-------------------------------|----------------------------3--|
G|2-------2-------2-------2---2--|--------2---2---------------2--|
D|2-------2-------2-------2---2--|--------2---2---------------0--|
A|0-------0-------0-------0---0--|--------0---0------------------|
E|-------------------------------|-------------------------------|


  D                               A
e|-------------------------------|------------12-----------------|
B|-------------------------------|----10--12B14---14R1210--------|
G|2-------4-------2--------------/11----------------------11-----|
D|0-------0-------0-------4------|-------------------------------|
A|------------------------0------|-------------------------------|
E|-------------------------------|-------------------------------|
      she was another man                                     All
e|-------------------------------|-------------------------------|
B|----3-------3-------3----------|-------------------------------|
G|----2-------2-------2-------2--|----2---2---------------2------|
D|----0-------0-------0-------2--|----2---2---------------2------|
A|----------------------------0--|----0---0---------------0------|
E|-------------------------------|-------------------------------|



e|-------------------------------|-------------------------------|
B|-------------------------------|-------------------------------|
G|-------------------------------|-------------------------------|
D|----2---4-------2-------4------|2-------4-------2-------4---2-/|
A|----0---0-------0-------0------|0-------0-------0-------0---0-/|
E|-------------------------------|-------------------------------|
      the girls around    her say    she's got it coming      but
e|-------------------------------|-------------------------------|
B|-------------------------------|-------------------------------|
G|2-------2---------------2------|2-------2-------2-------2------|
D|2-------2---------------2------|2-------2-------2-------2------|
A|0-------0---------------0------|0-------0-------0-------0------|
E|-------------------------------|-------------------------------|


  D                               A               G6/9
e|-------------------------------|-------------------------------|
B|-------------------------------|----7B8-5----------------------|
G|2-------4-------2-------4------|------------5---7B9-5---5------|
D|0-------0-------0-------0------|----------7-----------7--------|
A|-------------------------------|----------------------------5--|
E|-------------------------------|-------------------------------|
     she gets it while she can                            Get back
e|-------------------------------|--------------- 0--------------|
B|3-------3---------------3------|----------------0--------------|
G|2-------2---------------2------|--------2-------0--------------|
D|0-------0---------------0------|--------2-------0--------------|
A|-------------------------------|--------0-------0--------------|
E|-------------------------------|-------------------------------|


  A
e|--------------------9-9 9-9-9--|--------------------9-9 9-9-9--|
B|--------------------8-8-8-8-8--|--------------------8-8-8-8-8--|
G|--------------------9-9-9-9-9--|--------------------9-9-9-9-9--|
D|------------7------------------|------------7------------------|
A|----7---9----------------------|-----7--9----------------------|
E/9------------------------------/9------------------------------|
                          Get back                        Get back
e|-------------------------------|-------------------------------|
B|-------------------------------|-------------------------------|
G|----2-------2------------------|-------------------------------|
D|----2-------2------------------|-------------------------------|
A|----0-------0------------------|-------------------------------|
E|-------------------------------|-------------------------------|


  D
e|--------------------8-8 8-8-8--|--------------------9-9 9-9-9--|
B|--------------------7-7-7-7-7--|--------------------8-8-8-8-8--|
G|--------------------7-7-7-7-7--|--------------------9-9-9-9-9--|
D|------------7------------------|------------7------------------|
A|----7---9----------------------|----7---9----------------------|
E/9------------------------------/9------------------------------|
      To  where you once  belonged                        Get back
e|-------------------------------|--------------- 0--------------|
B|----3-------3-------3----------|----------------0--------------|
G|----2-------2-------2----------|----2-------2---0--------------|
D|----0-------0-------0----------|----2-------2---0--------------|
A|-------------------------------|----0-------0---0--------------|
E|-------------------------------|----------------0--------------|


  A           A7                             
e|--------------------9-9 9-9-9--|--------------------9-9 9-9-9--|
B|--------------------8-8-8-8-8--|--------------------8-8-8-8-8--|
G|--------------------9-9-9-9-9--|--------------------9-9-9-9-9--|
D|------------7------------------|------------7------------------|
A|----7---9----------------------|-----7--9----------------------|
E/9------------------------------/9------------------------------|
                          Get back                        Get back
e|-------------------------------|-------------------------------|
B|------------2------------------|------------2-----------2------|
G|---2--------0------------------|------------0-----------0------|
D|---2--------2------------------|------------2-----------2------|
A|---0--------0------------------|------------0-----------0------|
E|-------------------------------|-------------------------------|

e|-------------------------------|-------------------------------|
B|-------------------------------|-------------------------------|
G|------------5------------------|------------5------------------|
D|------------5------------------|------------5------------------|
A|------------0------------------|------------0------------------|
E|-------------------------------|-------------------------------|


  D                               A
e|--------------------8-8 8-8-8--|--------------------9-9 9-9-9--|
B|--------------------7-7-7-7-7--|--------------------8-8-8-8-8--|
G|--------------------7-7-7-7-7--|--------------------9-9-9-9-9--|
D|------------7------------------|------------7------------------|
A|----7---9----------------------|----7---9----------------------|
E/9------------------------------/9------------------------------|
      To  where you once  belonged    Get     back    Loretta
e|-------------------------------|-------------------------------|
B|3-------------------3-------3--|-------------------------------|
G|2-------------------2-------2--|2---2-------2-------2----------|
D|0-------------------0-------0--|2---2-------2-------2----------|
A|-------------------------------|0---0-------0-------0----------|
E|-------------------------------|-------------------------------|



e|-------------------------------|----12-------------------------|
B|-10--10-10-1010---1010--12--12-12B14-------14-R-12--10------10-\
G/11-----------------------------|-----------------------/11-----|
D|-------------------------------|-------------------------------|
A|-------------------------------|-------------------------------|
E|-------------------------------|-------------------------------|

e|-------------------------------|-------------------------------|
B|-------------------------------|-------------------------------|
G|2-------2-------2-------2------|2---------------2-------2------|
D|2-------2-------2-------2------|2---------------2-------2------|
A|0-------0-------0-------0------|0---------------0-------0------|
E|-------------------------------|-------------------------------|


  D                               A               G       D
e|-------------------------------|-------------------------------|
B|-------------------------------|----7B8-5----------------------|
G|------------7-------5-------5-B|6-----------5---7B9-5---5---7--|
D|----7-------------------7------|----------7-----------7--------|
A|9-------9----------------------|-------------------------------|
E|-------------------------------|-------------------------------|

e|-------------------------------|--------------- 3------ 2------|
B|3---------------3-------3------|----------------3-------3------|
G|2---------------2-------2------|2-------2-------0-------2------|
D|0---------------0-------0------|2-------2-------0-------0------|
A|-------------------------------|0-------0-------2--------------|
E|-------------------------------|----------------3--------------|


  A
e|-------------------------------|-------------------------------|
B|----10--10--10-----10-H-12--12-|12B14------14---14R1210---12B14|
G|11-----------------------------|------------------------11-----|
D|-------------------------------|-------------------------------|
A|-------------------------------|-------------------------------|
E|-------------------------------|-------------------------------|

e|-------------------------------|-------------------------------|
B|-------------------------------|-------------------------------|
G|2-------2-------2-------2------|2---------------2-------2------|
D|2-------2-------2-------2------|2---------------2-------2------|
A|0-------0-------0-------0------|0---------------0-------0------|
E|-------------------------------|-------------------------------|



  D                               A               G6/9
e|-------------------------------|-------------------------------|
B|----10--12B1410-12B1410-12B1410|--12B14-10-12--12B1410--10--12-|
G|-------------------------------|----------12----------11-------|
D|-------------------------------|-------------------------------|
A|-------------------------------|-------------------------------|
E|-------------------------------|-------------------------------|
                                      Go home
e|-------------------------------|--------------- 0--------------|
B|3-------3-------3-------3------|----------------0--------------|
G|2-------2-------2-------2------|2-------2-------0--------------|
D|0-------0-------0-------0------|2-------2-------0--------------|
A|-------------------------------|0-------0-------0--------------|
E|-------------------------------|-------------------------------|


  A           A7                  A           A7
e|--------------------9-9 9-9-9--|--------------------9-9 9-9-9--|
B|--------------------8-8-8-8-8--|--------------------8-8-8-8-8--|
G|--------------------9-9-9-9-9--|--------------------9-9-9-9-9--|
D|------------7------------------|------------7------------------|
A|----7---9----------------------|-----7--9----------------------|
E/9------------------------------/9------------------------------|
                          Get back                        Get back
e|------------3------------------|------------3------------------|
B|------------2------------------|------------2------------------|
G|------------0------------------|------------0------------------|
D|2-------2---2------------------|2---2---2---2------------------|
A|0-------0---0------------------|0---0---0---0------------------|
E|-------------------------------|-------------------------------|

e|-------------------------------|-------------------------------|
B|-------------------------------|-------------------------------|
G|------------5------------------|------------5------------------|
D|------------5------------------|------------5------------------|
A|------------0------------------|------------0------------------|
E|-------------------------------|-------------------------------|



  D                               A
e|--------------------8-8 8-8-8--|--------------------9-9 9-9-9--|
B|--------------------7-7-7-7-7--|--------------------8-8-8-8-8--|
G|--------------------7-7-7-7-7--|--------------------9-9-9-9-9--|
D|------------7------------------|------------7------------------|
A|----7---9----------------------|----7---9----------------------|
E/9------------------------------/9------------------------------|
      To  where you once  belonged                        Get back
e|-------------------------------|-------------------------------|
B|------------3------------------|----2-------2-------2----------|
G|------------2------------------|----2-------0-------2----------|
D|------------0------------------|----2-------2-------2----------|
A|-------------------------------|----0-------0-------0----------|
E|-------------------------------|-------------------------------|



  A           A7                  A           A7
e|--------------------9-9 9-9-9--|--------------------9-9 9-9-9--|
B|--------------------8-8-8-8-8--|--------------------8-8-8-8-8--|
G|--------------------9-9-9-9-9--|--------------------9-9-9-9-9--|
D|------------7------------------|------------7------------------|
A|----7---9----------------------|-----7--9----------------------|
E/9------------------------------/9------------------------------|
                          Get back                        Get back
e|------------3------------------|------------3------------------|
B|------------2------------------|------------2------------------|
G|------------0------------------|------------0------------------|
D|2-------2---2------------------|2-------2---2------------------|
A|0-------0---0------------------|0-------0---0------------------|
E|-------------------------------|-------------------------------|

e|-------------------------------|-------------------------------|
B|-------------------------------|-------------------------------|
G|------------5------------------|------------5------------------|
D|------------5------------------|------------5------------------|
A|------------0------------------|------------0------------------|
E|-------------------------------|-------------------------------|


                             (.
                          C   D
e|-------------------------------|-------------------------------|
B|------------------------5-/-7--|-------------------------------|
G|------------------------5-/-7--|-------------------------------|
D|x-------x-------x-------5-/-7--|-------------------------------|
A|x-------x-------x-------3-/-5--|-------------------------------|
E|-------------------------------|-------------------------------|
      To where you once   belonged                      Oooooooh       
e|----------------------------2--|-------------------------------|
B|----------------------------3--|-------------------------------|
G|----------------------------2--|-------------------------------|
D|----------------------------0--|-------------------------------|
A|----0--------------------------|-------------------------------|
E|-------------------------------|-------------------------------|
                                                          (.
e|-------------------------------|-------------------------------|
B|-------------------------------|--------7-----------5---3------|
G|-------------------------------|------------------------5------|
D|------------------------------5/7-----------5-----------4------|
A|-------------------------------|-------------------------------|
E|-------------------------------|-------------------------------|





  A
e|-------------------------------|-------------------------------|
B|-------------------------------|-------------------------------|
G|-------------------------------|-------------------------------|
D|--------4-------2-------4------|2-------4-------2-------4---2-/|
A|--------0-------0-------0------|0-------0-------0-------0---0--|
E|-------------------------------|-------------------------------|
                                            Get back Loretta
e|-------------------------------|-------------------------------|
B|-------------------------------|-------------------------------|
G|--------2-------2-------2------|2-------2-------2-------2------|
D|--------2-------2-------2------|2-------2-------2-------2------|
A|--------0-------0-------0------|0-------0-------0-------0------|
E|-------------------------------|-------------------------------|


  D                               A               G       D
e|-------------------------------|--------------------9-9 9-9-9--|
B|-------------------------------|--------------------8-8-8-8-8--|
G|2-------4-------2-------4------|--------------------9-9-9-9-9--|
D|0-------0-------0-------0------|------------7------------------|
A|-------------------------------|----7---9----------------------|
E|-------------------------------/9------------------------------|
                    Your mama's waiting for you           wearing her high  
e|-------------------------------|--------------- 3------ 2------|
B|3---------------3-------3------|----------------3-------3------|
G|2---------------2-------2------|2---------------0-------2------|
D|0---------------0-------0------|2---------------0-------0------|
A|-------------------------------|0---------------2--------------|
E|-------------------------------|----------------3--------------|


  A
e|--------------------9-9 9-9----|--------------------9-9 9------|
B|--------------------8-8-8-8----|--------------------8-8-8------|
G|--------------------9-9-9-9----|--------------------9-9-9------|
D|------------7------------------|------------7------------------|
A|----7---9----------------------|-----7--9----------------------|
E/9------------------------------/9------------------------------|
      heeled  shoes                         and her low neck sweater
e|-------------------------------|-------------------------------|
B|-------------------------------|-------------------------------|
G|2---------------2--------------|2-------2-------2-------2------|
D|2---------------2--------------|2-------2-------2-------2------|
A|0---------------0--------------|0-------0-------0-------0------|
E|-------------------------------|-------------------------------|


  D                               A               G       D
e|--------------------8-8 8-8----|--------------------9-9 9-9----|
B|--------------------7-7-7-7----|--------------------8-8-8-8----|
G|--------------------7-7-7-7----|--------------------9-9-9-9----|
D|------------7------------------|------------7------------------|
A|----7---9----------------------|----7---9----------------------|
E/9------------------------------/9------------------------------|
                    Get back home    Loretta              Get back
e|-------------------------------|--------------- 3------ 2------|
B|3---------------3-------3------|----------------3-------3------|
G|2---------------2-------2------|2-------2---2---0-------2------|
D|0---------------0-------0------|2-------2---2---0-------0------|
A|-------------------------------|0-------0---0---2--------------|
E|-------------------------------|----------------3--------------|


  A           A7                  A           A7
e|--------------------9-9 9-9----|--------------------9-9 9-9----|
B|--------------------8-8-8-8----|--------------------8-8-8-8----|
G|--------------------9-9-9-9----|--------------------9-9-9-9----|
D|------------7------------------|------------7------------------|
A|----7---9----------------------|-----7--9----------------------|
E/9------------------------------/9------------------------------|
                          Get back                        Get back
e|------------3------------------|------------3------------------|
B|------------2------------------|------------2------------------|
G|------------0------------------|------------0------------------|
D|--------2---2------------------|2-------2---2------------------|
A|--------0---0------------------|0-------0---0------------------|
E|-------------------------------|-------------------------------|

e|-------------------------------|-------------------------------|
B|-------------------------------|-------------------------------|
G|------------5------------------|------------5------------------|
D|------------5------------------|------------5------------------|
A|------------0------------------|------------0------------------|
E|-------------------------------|-------------------------------|


  D                           A                   G6/9
e|--------------------8-8 8-8----|--------------------9-9 9-9----|
B|--------------------7-7-7-7----|--------------------8-8-8-8----|
G|--------------------7-7-7-7----|--------------------9-9-9-9----|
D|------------7------------------|------------7------------------|
A|----7---9----------------------|----7---9----------------------|
E/9------------------------------/9------------------------------|
      To  where you once belonged                      Oh Get back
e|-------------------------------|--------------- 0--------------|
B|3-------3---3---3-------3------|----------------0--------------|
G|2-------2---2---2-------2---2--|----2-------2---0--------------|
D|0-------0---0---0-------0---2--|----2-------2---0--------------|
A|----------------------------0--|----0-------0---0--------------|
E|-------------------------------|----------------0--------------|


  A           A7                  A           A7
e|--------------------9-9 9-9----|--------------------9-9 9--9---|
B|--------------------8-8-8-8----|--------------------8-8-8--8---|
G|--------------------9-9-9-9----|--------------------9-9-9--9---|
D|------------7------------------|------------7------------------|
A|----7---9----------------------|-----7--9----------------------|
E/9------------------------------/9------------------------------|
                      Get back                               Get back
e|------------3---------- 3------|------------3---------- 3---3--|
B|------------2-----------2------|------------2-----------2---2--|
G|------------0-----------0------|------------0-----------0---0--|
D|2-------2---2-----------2------|2---2-------2-----------2---2--|
A|0-------0---0-----------0------|0---0-------0-----------0---0--|
E|-------------------------------|-------------------------------|
  .............................Fade..............................

  D                               A
e|--------------------8-8 8--8---|--------------------9-9 9--9---|
B|--------------------7-7-7--7---|--------------------8-8-8--8---|
G|--------------------7-7-7--7---|--------------------9-9-9--9---|
D|------------7------------------|------------7------------------|
A|----7---9----------------------|----7---9----------------------|
E/9------------------------------/9------------------------------|
                      Oh  yeah                               JoJo
e|-------------------------------|-------------------------------|
B|------------3-------3-------3--|-------------------------------|
G|------------2-------2-------2--|----2---2-----------2-------2--|
D|------------0-------0-------0--|----2---2-----------2-------2--|
A|-------------------------------|----0---0-----------0-------0--|
E|-------------------------------|-------------------------------|
  ...............................................................


e|--------------------9-9 9--9---|
B|--------------------8-8-8--8---|
G|--------------------9-9-9--9---|
D|------------7------------------|
A|----7---9----------------------|
E/9------------------------------|
                    
e|-------------------------------|
B|-------------------------------|
G|----2-------2-------2-------2--|
D|----2-------2-------2-------2--|
A|----0-------0-------0-------0--|
E|-------------------------------|
  ..............................




************************************

| x  Dead note
| /  Slide up
| p  Pull-off

************************************
Suggest correction
Creating personal tab
Creating personal tab
You can edit any tab online and save it as your Personal.

You can edit, replace or remove any tab part or add personal notes – all changes will be seen only by you.

Personal tabs can be accessed anytime from any device, even offline.
Learn more »
comments
print report bad tab
10 comments total. Showing first comments.
0 reply
bheanz 10 Apr 05, 2006 02:54 PM

nice job

+1 reply
FenderFreak626 15 Aug 13, 2006 11:02 AM

this is excellent

0 reply
kramerfiely 10 Aug 05, 2007 10:14 AM

its sweet loretta martin, not modern, but other wise, sweet job

guest
You may want to rate the tab now too:
select rating
Wanna post a correction for this tab? Suggest correction