Oops, an error
Loading. Please wait.
We have an official Got To Get You Into My Life tab made by UG professional guitarists. Check out the tab »
×
5,277 views 21 this week
no commentswrite comment
1 2 3 4 5
1 last vote to show rating
add to favorites
×
Save as Personal and add changes to this tab that will be seen only by you. Learn more ›
×
You can save this tab as Personal to edit and correct it or add notes. All changes will be seen only by you. Learn more »
launch autoscroll
font size
0
reset
guitar tuner
edit
Autoscroll
slow
fast
+/-
esc
set tempo
stop
Author
       -----------------------------------------------------------

                THE BEATLES - GOT TO GET YOU INTO MY LIFE
                             Paul McCartney
            From REVOLVER album. Released on August 5th 1966.

       -----------------------------------------------------------





   I was alone, I took a ride
   I didn't know what I would find there
   Another road where maybe I 
   Could see another kind of mind there

   Ooh, then I suddenly see you
   Ooh, did I tell you I need you
   Ev'ry single day of my life

   You didn't run, you didn't lie
   You knew I wanted just to hold you
   And had you gone, you knew in time
   We'd meet again for I had told you

   Ooh, you were meant to be near me
   Ooh, an' I want you to hear me
   Say we'll be together ev'ry day

   Got to get you into my life!

   What can I do, what can I be?
   When I'm with you I wanna stay there
   If I am true I'll never leave
   And If I do I know the way there

   Ooh, then I suddenly see you
   Ooh, did I tell you I need you
   Ev'ry single day of my life

   Got to get you into my life!

   I got to get you into my life
   I was alone, I took a ride
   I didn't know what I would find there
   Another road where maybe I 
   Could see another kind of mind there
   And suddenly I see you
   Did I tell you I need you
   Ev'ry single day...





     INTRO


  G|-7-------------------------------|---------------------------------|
  D|-5-------------------------------|---------------------------------|
  A|---------------------------------|---------------------------------|
  E|---------------------------------|---------------------------------|



  G|---------------------------------|---------------------------------|
  D|---------------------------------|------------------------------0--|
  A|---------------------------------|---------------------------------|
  E|---------------------------------|---------------------------------|



     VERSE
     00:07

  G|---------------------------------|---------------------------------|
  D|-5-------5-------5-------5----0--|-5-------5-------5-------5----0--|
  A|---------------------------------|---------------------------------|
  E|---------------------------------|---------------------------------|



  G|---------------------------------|---------------------------------|
  D|-5-------5-------5-------5----0--|-5-------5-------5-------5----0--|
  A|---------------------------------|---------------------------------|
  E|---------------------------------|---------------------------------|



  G|---------------------------------|---------------------------------|
  D|-5-------5-------5-------5----0--|-5-------5------5--------------3-|
  A|---------------------------------|-------------------3--5--5--5----|
  E|---------------------------------|---------------------------------|



  G|---------------------------------|---------------------------------|
  D|-5-------5-------5-------5----0--|-5-------5-------5-------5----0--|
  A|---------------------------------|---------------------------------|
  E|---------------------------------|---------------------------------|


     00:21
  G|---------------------------------|---------------------------------|
  D|---------------------------------|---------------------------------|
  A|-2-------2-------1-------1-------|-0-------0-----------------------|
  E|---------------------------------|-----------------4-------4-------|



  G|---------------------------------|---------------------------------|
  D|---------------------------------|---------------------------------|
  A|-2-------2-------1-------1-------|-0-------0-----------------------|
  E|---------------------------------|-----------------4-------4-------|



  G|---------------------------------|---------------------------------|
  D|---------------------------------|---------------------------------|
  A|-3-------3-------2-------2-------|-0-------0-------5-------5-------|
  E|---------------------------------|---------------------------------|



  G|---------------------------------|---------------------------------|
  D|-5-------------------------------|---------------------------------|
  A|---------------------------------|---------------------------------|
  E|---------------------------------|---------------------------------|



     VERSE
     00:35

  G|---------------------------------|---------------------------------|
  D|-5-------5-------5-------5----0--|-5-------5-------5-------5----0--|
  A|---------------------------------|---------------------------------|
  E|---------------------------------|---------------------------------|



  G|---------------------------------|---------------------------------|
  D|-5-------5-------5-------5----0--|-5-------5-------5-------5----0--|
  A|---------------------------------|---------------------------------|
  E|---------------------------------|---------------------------------|



  G|---------------------------------|---------------------------------|
  D|-5-------5-------5-------5----0--|-5-------5------5--------------3-|
  A|---------------------------------|-------------------3--5--5--5----|
  E|---------------------------------|---------------------------------|



  G|---------------------------------|---------------------------------|
  D|-5-------5-------5-------5----0--|-5-------5-------5-------5----0--|
  A|---------------------------------|---------------------------------|
  E|---------------------------------|---------------------------------|


     00:49
  G|---------------------------------|---------------------------------|
  D|---------------------------------|------------------------------0--|
  A|-2-------2-------1-------1-------|-0-------0-----------------------|
  E|---------------------------------|-----------------4-------4-------|



  G|---------------------------------|---------------------------------|
  D|---------------------------------|---------------------------------|
  A|-2-------2-------1-------1-------|-0-------0-----------------------|
  E|---------------------------------|-----------------4-------4-------|



  G|---------------------------------|---------------------------------|
  D|---------------------------------|---------------------------------|
  A|-3-------3-------2-------2-------|-0-------0-------5-------5-------|
  E|---------------------------------|---------------------------------|



  G|---------------------------------|---------------------------------|
  D|-5-------------------------------|---------------------------------|
  A|---------------------------------|---------------------------------|
  E|---------------------------------|---------------------------------|



     CHORUS
     01:03

  G|---------------------------------|---------------------------------|
  D|-5-------5-------5-------5-------|---------------------------------|
  A|------------------------------2--|-3-------3-------3-------3----2--|
  E|---------------------------------|---------------------------------|



  G|---------------------------------|---------------------------------|
  D|---------------------------------|---------------------------------|
  A|-3-------3-------3----2--3-------|-5-------------------------------|
  E|---------------------------------|---------------------------------|



  G|---------------------------------|---------------------------------|
  D|-5-------5-------5----0--5----0--|-5-------5-------5----0--5----0--|
  A|---------------------------------|---------------------------------|
  E|---------------------------------|---------------------------------|



     VERSE
     01:14

  G|---------------------------------|---------------------------------|
  D|-5-------5-------5-------5----0--|-5-------5-------5-------5----0--|
  A|---------------------------------|---------------------------------|
  E|---------------------------------|---------------------------------|



  G|---------------------------------|---------------------------------|
  D|-5-------5-------5-------5----0--|-5-------5----0--5-------5----0--|
  A|---------------------------------|---------------------------------|
  E|---------------------------------|---------------------------------|



  G|---------------------------------|---------------------------------|
  D|-5-------5-------5-------5----0--|-5-------5------5--------------3-|
  A|---------------------------------|-------------------3--5--5--5----|
  E|---------------------------------|---------------------------------|



  G|---------------------------------|---------------------------------|
  D|-5-------5-------5-------5----0--|-5-------5-------5-------5----0--|
  A|---------------------------------|---------------------------------|
  E|---------------------------------|---------------------------------|


     01:28
  G|---------------------------------|---------------------------------|
  D|---------------------------------|---------------------------------|
  A|-2-------2-------1-------1-------|-0-------0--------------------0--|
  E|---------------------------------|-----------------4-------4-------|



  G|---------------------------------|---------------------------------|
  D|---------------------------------|---------------------------------|
  A|-2-------2-------1-------1-------|-0-------0-----------------------|
  E|---------------------------------|-----------------4-------4-------|



  G|---------------------------------|---------------------------------|
  D|---------------------------------|---------------------------------|
  A|-3-------3-------2-------2-------|-0-------0-------5-------5-------|
  E|---------------------------------|---------------------------------|



  G|---------------------------------|---------------------------------|
  D|-5-------------------------------|---------------------------------|
  A|---------------------------------|---------------------------------|
  E|---------------------------------|---------------------------------|



     CHORUS
     01:42

  G|---------------------------------|---------------------------------|
  D|-5-------5-------5-------5-------|---------------------------------|
  A|------------------------------2--|-3-------3-------3----2--3-------|
  E|---------------------------------|---------------------------------|



  G|---------------------------------|---------------------------------|
  D|---------------------------------|---------------------------------|
  A|-3-------3-------3----2--3-------|-5-------------------------------|
  E|---------------------------------|---------------------------------|



  G|---------------------------------|---------------------------------|
  D|-5-------------------------------|---------------------------------|
  A|-5-------------------------------|---------------------------------|
  E|-3-------------------------------|---------------------------------|



  G|---------------------------------|---------------------------------|
  D|---------------------------------|---------------------------------|
  A|---------------------------------|---------------------------------|
  E|---------------------------------|---------------------------------|



  G|---------------------------------|---------------------------------|
  D|-5-------5-------5-------5-------|---------------------------------|
  A|---------------------------------|-3-------3-------3-------3-------|
  E|---------------------------------|---------------------------------|



  G|---------------------------------|---------------------------------|
  D|---------------------------------|---------------------------------|
  A|-3-------3-------3----2--3-------|-5-------------------------------|
  E|---------------------------------|---------------------------------|



  G|---------------------------------|---------------------------------|
  D|-5-------5-------5-------5-------|-5-------5-------5-------5-------|
  A|-5-------5-------5-------5-------|-5-------5-------5-------5-------|
  E|---------------------------------|---------------------------------|



     OUTRO
     02:06

  G|---------------------------------|---------------------------------|
  D|-5-------5-------5-------5----0--|-5-------5-----------------------|
  A|-5-------5-------5-------5-------|---------------------------------|
  E|---------------------------------|-----------------3-------3-------|



  G|---------------------------------|---------------------------------|
  D|-5-------5-------5-------5----0--|-5-------5-------5-------5----0--|
  A|-----------------5-------5-------|---------5---------------5-------|
  E|---------------------------------|---------------------------------|



  G|---------------------------------|---------------------------------|
  D|-5-------5-------5-------5----0--|-5-------5-------5-------5----0--|
  A|---------------------------------|---------------------------------|
  E|---------------------------------|---------------------------------|



  G|---------------------------------|---------------------------------|
  D|-5-------5------5-------------3--|-5-------5-------5---------------|
  A|---------------------3--3--5-----|-------------------------3-------|
  E|---------------------------------|---------------------------------|



  G|---------------------------------|---------------------------------|
  D|-5-------5-------5---------------|---------------------------------|
  A|----------------------3--2----0--|---------------------------------|
  E|---------------------------------|-3-------3-------3-------3-------|



  G|---------------------------------|---------------------------------|
  D|---------5-------5---------------|---------------------------------|
  A|----------------------3--2----0--|---------------------------------|
  E|-3-------------------------------|-3-------------------------------| ....

            
            
Suggest correction
Creating personal tab
Creating personal tab
You can edit any tab online and save it as your Personal.

You can edit, replace or remove any tab part or add personal notes – all changes will be seen only by you.

Personal tabs can be accessed anytime from any device, even offline.
Learn more »
Give kudos to tab author, rate the tab!
1 2 3 4 5
comments
print report bad tab
guest
You may want to rate the tab now too:
select rating
Wanna post a correction for this tab? Suggest correction