Oops, an error
Loading. Please wait.

Happiness Is A Warm Gun Tab

version 2
version 2

Whole song

Interactive

171,227 views 273 this week
10 commentsread comments
1 2 3 4 5
x 30
add to favorites
launch autoscroll
font size
0
reset
how to read this tab
guitar tuner
×
Best way to learn
"Happiness Is A Warm Gun"
Autoscroll
slow
fast
+/-
esc
set tempo
stop
Author
-------------------------------------------------------------------------
  THE BEATLES - HAPPINESS IS A WARM GUN (Lennon/McCartney) From THE WHITE
                ALBUM. Released on 22nd November 1968.
-------------------------------------------------------------------------

  Tabbed by:PJVillanueva

She's not a girl who misses much
Do do do do do do- oh yea!
She's well acquainted with the touch of the velvet hand
Like a lizard on a window pane

The man in the crowd with the multicoloured mirrors
On his hobnail boots
Lying with his eyes while his hands are busy
Working overtime
A soap impression of his wife which he ate
And donated to the National Trust

I need a fix 'cause I'm going down
Down to the bits that I left uptown
I need a fix cause I'm going down
Mother Superior jump the gun
Mother Superior jump the gun
Mother Superior jump the gun
Mother Superior jump the gun

Happiness is a warm gun
Happiness is a warm gun, momma
When I hold you in my arms
And I feel my finger on your trigger
I know nobody can do me no harm
Because happiness is a warm gun, momma
Happiness is a warm gun
-Yes it is.
Happiness is a warm, yes it is...
Gun!
Well don't ya know that happiness is a warm gun, momma?


e|-------------------------------|-------------------------------|
B|-------------------------------|-------------------------------|
G|-------------------------------|-------------------------------|
D|-------------------------------|-------------------------------|
A|-------------------------------|-------------------------------|
E|-------------------------------|-------------------------------|
                                                          She's
  Am7                             Am6
e|3------------------------------|2------------------------------|
B|--------------------1----------|--------------------1----------|
G|------------2------------------|------------2------------------|
D|--------2---------------2------|--------2---------------2------|
A|0------------------------------|0------------------------------|
E|----------------0--------------|----------------0--------------|
  not                      a  girl                        who misses

  Emadd9
e|2------------------------------|0------------------------------|
B|--------------------0----------|--------------------0----------|
G|------------0------------------|------------0------------------|
D|--------2---------------4------|--------4---------------2------|
A|-------------------------------|-------------------------------|
E|0---------------0--------------|0---------------0--------------|
              much

  Am7                             Am6
e|3------------------------------|2------------------------------|
B|--------------------1----------|--------------------1----------|
G|------------2------------------|------------2------------------|
D|--------2---------------2------|--------2---------------2------|
A|0------------------------------|0------------------------------|
E|----------------0--------------|----------------0--------------|
          Do  do  do  do  do  do

                                  x   x   x   x   x   x   x   x
  Emadd9
e|2------------------------------|0------------------------------|
B|--------------------0----------|--------------------0----------|
G|------------0------------------|------------0------------------|
D|--------2---------------4------|--------4---------------2------|
A|-------------------------------|-------------------------------|
E|0---------------0--------------|0---------------0--------------|
              Oh,     yeah                                    The

  Dm
e|1-------------------1----------|1-------------------1----------|
B|------------3------------------|------------3------------------|
G|--------2---------------2------|--------2---------------2------|
D|0------------------------------|0------------------------------|
A|----------------0--------------|----------------0--------------|
E|-------------------------------|-------------------------------|
      She's well acquainted with the touch of the velvet      hand
e|7------------------------------|-------------------------------|
B|6------------------------------|----------------6--------------|
G|7------------------------------|----------------7--------------|
D|7------------------------------|----------------7--------------|
A|-------------------------------|----------------5--------------|
E|-------------------------------|-------------------------------|

                                  Am                      Asus2
e|1-------------------1----------|0------------------------------|
B|------------3------------------|--------------------1---0------|
G|--------2---------------2------|------------2------------------|
D|0------------------------------|--------2---------------2------|
A|----------------0--------------|0------------------------------|
E|-------------------------------|----------------0--------------|
          Like a  lizard  on  a   window      pane
e|--------------- 5--------------|--------------- 5--------------|
B|----------------6--------------|----------------5--------------|
G|----------------7--------------|----------------5--------------|
D|----------------7--------------|----------------7--------------|
A|----------------5--------------|----------------7--------------|
E|-------------------------------|----------------6--------------|

  Am
e|0------------------------------|
B|--------------------1----------|
G|------------2------------------|
D|--------2---------------2------|
A|0------------------------------|
E|----------------0--------------|
                              The
e|--------------- 5--------------|
B|----------------5--------------|
G|----------------5--------------|
D|----------------7--------------|
A|----------------7--------------|
E|----------------5--------------|

  Dm
e|1-------------------1----------|1-------------------1----------|
B|------------3------------------|------------3------------------|
G|--------2---------------2------|--------2---------------2------|
D|0------------------------------|0------------------------------|
A|----------------0--------------|----------------0--------------|
E|-------------------------------|-------------------------------|
  man     in the crowd   with the multicoloured   mirrors on  his
e|5------------------------------|--------------- 5--------------|
B|6------------------------------|----------------6--------------|
G|7------------------------------|----------------7--------------|
D|7------------------------------|----------------7--------------|
A|5------------------------------|----------------5--------------|
E|-------------------------------|-------------------------------|

  Am                                                      Asus2
e|o------------------------------|0------------------------------|
B|--------------------1----------|--------------------1---0------|
G|------------2------------------|------------2------------------|
D|--------2---------------2------|--------2---------------2------|
A|0------------------------------|0------------------------------|
E|----------------0--------------|----------------0--------------|

  hobnail         boots
e|--------------- 5--------------|--------------- 5--------------|
B|----------------5--------------|----------------5--------------|
G|----------------5--------------|----------------5--------------|
D|----------------7--------------|----------------7--------------|
A|----------------7--------------|----------------7--------------|
E|----------------5--------------|----------------5--------------|

  Dm
e|1-------------------1----------|1-------------------1----------|
B|------------3------------------|------------3------------------|
G|--------2---------------2------|--------2---------------2------|
D|0------------------------------|0------------------------------|
A|----------------0--------------|----------------0--------------|
E|-------------------------------|-------------------------------|
  Lying   with his eyes  while his hands are  busy        working
e|--------------- 5--------------|--------------- 5--------------|
B|----------------6--------------|----------------6--------------|
G|----------------7--------------|----------------7--------------|
D|----------------7--------------|----------------7--------------|
A|----------------5--------------|----------------5--------------|
E|-------------------------------|-------------------------------|

  Am
e|o------------------------------|0------------------------------|
B|--------------------1----------|--------------------1----------|
G|------------2------------------|------------2------------------|
D|--------2---------------2------|--------2---------------2------|
A|0------------------------------|0------------------------------|
E|----------------0--------------|----------------0--------------|
  overtime
e|--------------- 5--------------|--------------- 5--------------|
B|----------------5--------------|----------------5--------------|
G|----------------5--------------|----------------5--------------|
D|----------------7--------------|----------------7--------------|
A|----------------7--------------|----------------7--------------|
E|----------------5--------------|----------------5--------------|

  Dm
e|1-------------------1----------|1-------------------1----------|
B|------------3------------------|------------3------------------|
G|--------2---------------2------|--------2---------------2------|
D|0------------------------------|0------------------------------|
A|----------------0--------------|----------------0--------------|
E|-------------------------------|-------------------------------|
      A  soap impression  of his  wife    which he ate    and do..
e|--------------- 5--------------|--------------- 5--------------|
B|----------------6--------------|----------------6--------------|
G|----------------7--------------|----------------7--------------|
D|----------------7--------------|----------------7--------------|
A|----------------5--------------|----------------5--------------|
E|-------------------------------|-------------------------------|

                  Am                      Asus2
e|1--------------|0------------------------------|
B|------------3--|--------------------1---0------|
G|--------2------|------------2------------------|
D|0--------------|--------2---------------2------|
A|---------------|0------------------------------|
E|---------------|----------------0--------------|
  nated   to the  National    Trust
e|---------------|--------------- 5--------------|
B|---------------|----------------5--------------|
G|---------------|----------------5--------------|
D|---------------|----------------7--------------|
A|---------------|----------------7--------------|
E|---------------|----------------5--------------|

  Am
e|0------------------------------|
B|--------------------1----------|
G|------------2------------------|
D|--------2---------------2------|
A|0------------------------------|
E|----------------0--------------|

e|5------------------------------|
B|5------------------------------|
G|5------------------------------|
D|7------------------------------|
A|7---------------------------5-/|
E|5------------------------------|


  A7
e|--------------------------------|--------------------------------|
B|-----------2----------2---------|-----------2----------2---------|
G|-----------0----------0---------|-----------0----------0---------|
D|-----------2----------2---------|-----------2----------2---------|
A|0-------------------------------|--------------------------------|
E|--------------------------------|0-------------------------------|

e|--------------------------------|--------------------------------|
B|--------------------------------|--------------------------------|
G|--------------------------------|--------------------------------|
D|--------------------------------|--------------------------------|
A|7----------7-B-10---------------|3-B-4-----------------3---------|
E|--------------------------------|-----------5--------------------|


e|--------------------------------|--------------------------------|
B|-----------2----------2---------|-----------2----------2---------|
G|-----------0----------0---------|-----------0----------0---------|
D|-----------2----------2---------|-----------2----------2---------|
A|0-------------------------------|--------------------------------|
E|--------------------------------|0-------------------------------|

e|--------------------------------|--------------------------------|
B|--------------------------------|--------------------------------|
G|--------------------------------|--------------------------------|
D|--------------------------------|--------------------------------|
A|5-B-6-----R5B6R5B6R5P3-------5-/|7----------7-B-10---------------|
E|----------------------5---------|--------------------------------|


e|--------------------------------|--------------------------------|
B|-----------2----------2---------|-----------2----------2---------|
G|-----------0----------0---------|-----------0----------0---------|
D|-----------2----------2---------|-----------2----------2---------|
A|0-------------------------------|--------------------------------|
E|--------------------------------|0----------3----------4---------|

e|--------------------------------|--------------------------------|
B|--------------------------------|--------------------------------|
G|--------------------------------|--------------------------------|
D|--------------------------------|--------------------------------|
A|3-B-4-----------------3------5-/|7----------7-B-10------------5-/|
E|-----------5---------------------|-------------------------------|

                                   C
e|--------------------------------|--------------------------------|
B|-----------2----------2---------|-----------1----------1---------|
G|-----------0----------0---------|-----------0----------0---------|
D|-----------2----------2---------|-----------2----------2---------|
A|0----------1----------2---------|3-------------------------------|
E|--------------------------------|--------------------------------|

e|--------------------------------|--------------------------------|
B|--------------------------------|--------------------------------|
G|--------------------------------|--------------------------------|
D|--------------------------------|--------------------------------|
A|7----------7-----------------B--|-----------10-------------------|
E|--------------------------------|--------------------------------|

                                   Am7
e|--------------------------------|--------------------------------|
B|-----------1----------1---------|-----------1----------1---------|
G|-----------0----------0---------|-----------0----------0---------|
D|-----------2----------2---------|-----------2----------2---------|
A|--------------------------------|0-------------------------------|
E|3-------------------------------|--------------------------------|

e|--------------------------------|--------------------------------|
B|--------------------------------|--------------------------------|
G|--------------------------------|--------------------------------|
D|--------------------------------|--------------------------------|
A|3-B-4-----------------3---------|5-B-6-----R5B6R5B6R5P3----------|
E|-----------5--------------------|----------------------5---------|


e|--------------------------------|
B|-----------1----------1---------|
G|-----------0----------0---------|
D|-----------2----------2---------|
A|--------------------------------|
E|0-------------------------------|

  A7
e|--------------------------------|--------------------------------|
B|-----------2----------2---------|-----------2----------2---------|
G|-----------0----------0---------|-----------0----------0---------|
D|-----------2----------2---------|-----------2----------2---------|
A|0-------------------------------|--------------------------------|
E|--------------------------------|0----------3----------4---------|
  I         need      a         fix        'cause I'm

e|--------------------------------|--------------------------------|
B|-----------2----------2---------|-----------2----------2---------|
G|-----------0----------0---------|-----------0----------0---------|
D|-----------2----------2---------|-----------2----------2---------|
A|0-------------------------------|--------------------------------|
E|--------------------------------|0-------------------------------|
  going     down                   Down       to         the

e|--------------------------------|--------------------------------|
B|-----------2----------2---------|-----------2----------2---------|
G|-----------0----------0---------|-----------0----------0---------|
D|-----------2----------2---------|-----------2----------2---------|
A|0-------------------------------|--------------------------------|
E|--------------------------------|0----------3----------4---------|
  bits       that  I               left       up...................

                                   C
e|--------------------------------|--------------------------------|
B|-----------2----------2---------|-----------1----------1---------|
G|-----------0----------0---------|-----------0----------0---------|
D|-----------2----------2---------|-----------2----------2---------|
A|0----------1----------2---------|3-------------------------------|
E|--------------------------------|--------------------------------|
  town                             I          need       a


                                   A
e|--------------------------------|--------------------------------|
B|-----------1----------1---------|2-------------------------------|
G|-----------0----------0---------|2-------------------------------|
D|-----------2----------2---------|2-------------------------------|
A|-----------2----------1---------|0-------------------------------|
E|3-------------------------------|--------------------------------|
  fix        cause I'm             going      down


e|--------------------------------|
B|--------------------------------|
G|--------------------------------|
D|--------------------------------|
A|--------------------------------|
E|--------------------------------|


  A                                C
e|--------------------------------|-------------------------------|
B|2-----2----2-----2--------------|1-------1-------1-------1------|
G|2-----2----2-----2--------------|0-------0-------0-------0------|
D|2-----2----2-----2--------------|2-------2-------2-------2------|
A|0-----0----0-----0--------------|3-------3-------3-------3------|
E|--------------------------------|-------------------------------|
  Mother     Superior              jump    the gun
e|--------------------------------|-------------------------------|
B|--------------------------------|-------------------------------|
G|--------------------------------|------------------------7------|
D|--------------------------------|--------7-------10-------------|
A|--------------------------------|8------------------------------|
E|5----5-----5----5---------------|-------------------------------|

e|---------------------|
B|1----------1---------|
G|0----------0---------|
D|2----------2---------|
A|3----------3---------|
E|---------------------|

e|---------------------|
B|---------------------|
G|---------------------|
D|---------------------|
A|10---------7----\----|
E|---------------------|

  A                                G
e|--------------------------------|-------------------------------|
B|2-----2----2-----2--------------|0-------0-------0-------0------|
G|2-----2----2-----2--------------|0-------0-------0-------0------|
D|2-----2----2-----2--------------|0-------0-------0-------0------|
A|0-----0----0-----0--------------|2-------2-------2-------2------|
E|--------------------------------|3-------3-------3-------3------|
  Mother     Superior              jump    the gun
e|--------------------------------|-------------------------------|
B|--------------------------------|-------------------------------|
G|--------------------------------|-------------------------------|
D|--------------------------------|------------------------5------|
A|--------------------------------|--------2-------5--------------|
E|5----5-----5----5---------------|3------------------------------|

e|--------------------------------|
B|0----------0----------0---------|
G|0----------0----------0---------|
D|0----------0----------0---------|
A|2----------2----------2---------|
E|3----------3----------3---------|

e|--------------------------------|
B|--------------------------------|
G|--------------------------------|
D|3-------------------------------|
A|-----------5--------------------|
E|----------------------3---------|

  A                                C
e|--------------------------------|-------------------------------|
B|2-----2----2-----2--------------|1-------1-------1-------1------|
G|2-----2----2-----2--------------|0-------0-------0-------0------|
D|2-----2----2-----2--------------|2-------2-------2-------2------|
A|0-----0----0-----0--------------|3-------3-------3-------3------|
E|--------------------------------|-------------------------------|
  Mother     Superior              jump    the gun
e|--------------------------------|-------------------------------|
B|--------------------------------|-------------------------------|
G|--------------------------------|------------------------7------|
D|--------------------------------|--------7-------10-------------|
A|--------------------------------|8------------------------------|
E|5----5-----5----5---------------|-------------------------------|

e|---------------------|
B|1----------1---------|
G|0----------0---------|
D|2----------2---------|
A|3----------3---------|
E|---------------------|

e|---------------------|
B|---------------------|
G|---------------------|
D|---------------------|
A|10---------7----\----|
E|---------------------|

  A                                G
e|--------------------------------|-------------------------------|
B|2-----2----2-----2--------------|0-------0-------0-------0------|
G|2-----2----2-----2--------------|0-------0-------0-------0------|
D|2-----2----2-----2--------------|0-------0-------0-------0------|
A|0-----0----0-----0--------------|2-------2-------2-------2------|
E|--------------------------------|3-------3-------3-------3------|
  Mother     Superior              jump    the gun
e|--------------------------------|-------------------------------|
B|--------------------------------|-------------------------------|
G|--------------------------------|-------------------------------|
D|--------------------------------|------------------------5------|
A|--------------------------------|--------2-------5--------------|
E|5----5-----5----5---------------|3------------------------------|

e|--------------------------------|
B|0----------0----------0---------|
G|0----------0----------0---------|
D|0----------0----------0---------|
A|2----------2----------2---------|
E|3----------3----------3---------|

e|--------------------------------|
B|--------------------------------|
G|--------------------------------|
D|3-------------------------------|
A|-----------5--------------------|
E|----------------------3---------|

  A                                C
e|--------------------------------|-------------------------------|
B|2-----2----2-----2--------------|1-------1-------1-------1------|
G|2-----2----2-----2--------------|0-------0-------0-------0------|
D|2-----2----2-----2--------------|2-------2-------2-------2------|
A|0-----0----0-----0--------------|3-------3-------3-------3------|
E|--------------------------------|-------------------------------|
  Mother     Superior              jump    the gun
e|--------------------------------|-------------------------------|
B|--------------------------------|-------------------------------|
G|--------------------------------|------------------------7------|
D|--------------------------------|--------7-------10-------------|
A|--------------------------------|8------------------------------|
E|5----5-----5----5---------------|-------------------------------|

e|---------------------|
B|1----------1---------|
G|0----------0---------|
D|2----------2---------|
A|3----------3---------|
E|---------------------|

e|---------------------|
B|---------------------|
G|---------------------|
D|---------------------|
A|10---------7----\----|
E|---------------------|

  A                                G
e|--------------------------------|-------------------------------|
B|2-----2----2-----2--------------|0-------0-------0-------0------|
G|2-----2----2-----2--------------|0-------0-------0-------0------|
D|2-----2----2-----2--------------|0-------0-------0-------0------|
A|0-----0----0-----0--------------|2-------2-------2-------2------|
E|--------------------------------|3-------3-------3-------3------|
  Mother     Superior              jump    the gun
e|--------------------------------|-------------------------------|
B|--------------------------------|-------------------------------|
G|--------------------------------|-------------------------------|
D|--------------------------------|------------------------5------|
A|--------------------------------|--------2-------5--------------|
E|5----5-----5----5---------------|3------------------------------|

e|--------------------------------|
B|0----------0----------0---------|
G|0----------0----------0---------|
D|0----------0----------0---------|
A|2----------2----------2---------|
E|3----------3----------3---------|

e|--------------------------------|
B|--------------------------------|
G|--------------------------------|
D|3-------------------------------|
A|-----------5--------------------|
E|----------------------3---------|

  C                               Am
e|-------------------------------|-------------------------------|
B|----------------1--------------|----------------1--------------|
G|--------0---------------0------|--------2---------------2------|
D|2------------------------------|2------------------------------|
A|3------------------------------|0------------------------------|
E|-------------------------------|-------------------------------|
                  Happiness                               is  a
                  Happiness

  F                               G
e|-------------------------------|-------------------------------|
B|----------------1--------------|----------------3--------------|
G|--------2----------------------|--------4---------------4------|
D|3-----------------------3------|5------------------------------|
A|-------------------------------|-------------------------------|
E|1------------------------------|3------------------------------|
  warm        gun
                  Bang            bang            shoot

  C                               Am
e|-------------------------------|-------------------------------|
B|----------------1--------------|----------------1--------------|
G|--------0---------------0------|--------2---------------2------|
D|2------------------------------|2------------------------------|
A|3-----------------------2------|0------------------------------|
E|-------------------------------|------------------------3------|
                  Happiness                               is  a
  shoot           Happiness

  F                               G
e|-------------------------------|-------------------------------|
B|----------------1--------------|---------------3---------------|
G|--------2---------------2------|--------4---------------4------|
D|3------------------------------|5------------------------------|
A|-------------------------------|-------------------------------|
E|1------------------------------|3------------------------------|
  warm        gun,        momma
                  bang            bang            shoot


  C                                Am
e|--------------------------------|--------------------------------|
B|-----------1----------1---------|-----------1----------1---------|
G|-----------0----------0---------|-----------2----------2---------|
D|-----------2----------2---------|-----------2----------2---------|
A|3-------------------------------|0-------------------------------|
E|--------------------------------|--------------------------------|
                   When I          hold       you
  shoot

  F                                G
e|--------------------------------|--------------------------------|
B|-----------1----------1---------|-----------3----------3---------|
G|-----------2----------2---------|-----------4----------4---------|
D|-----------3----------3---------|-----------5----------5---------|
A|--------------------------------|--------------------------------|
E|1-------------------------------|3-------------------------------|
             in         my         arms
                                   Oh,

  C                                Am
e|--------------------------------|--------------------------------|
B|-----------1----------1---------|-----------1----------1---------|
G|-----------0----------0---------|-----------2----------2---------|
D|-----------2----------2---------|-----------2----------2---------|
A|3-------------------------------|0-------------------------------|
E|--------------------------------|--------------------------------|
                   and  I          feel              my
  Yeah                             Oooooooooooooooooooooooooooooooo

  F                                G
e|--------------------------------|--------------------------------|
B|-----------1----------1---------|-----------3----------3---------|
G|-----------2----------2---------|-----------4----------4---------|
D|-----------3----------3---------|-----------5----------5---------|
A|--------------------------------|--------------------------------|
E|1-------------------------------|3-------------------------------|
  finger            on  your            trigger
  ooooooooooooooooooohhhhhhhhhhhhh  Oh,

  C                                Am
e|--------------------------------|--------------------------------|
B|-----------1----------1---------|-----------1----------1---------|
G|-----------0----------0---------|-----------2----------2---------|
D|-----------2----------2---------|-----------2----------2---------|
A|3-------------------------------|0-------------------------------|
E|--------------------------------|--------------------------------|
                        I          know                  no........
  yeah                             Oooooooooooooooooooooooooooooooo

  F                                G
e|--------------------------------|--------------------------------|
B|-----------1----------1---------|-----------3----------3---------|
G|-----------2----------2---------|-----------4----------4---------|
D|-----------3----------3---------|-----------5----------5---------|
A|--------------------------------|--------------------------------|
E|1-------------------------------|3-------------------------------|
  body       can        do   me    no         harm
  ooooooooooooooooohhhhhhhhhhhhhhh Oh,

  C                               Am
e|0------ 0------ 0------ 0------|0------ 0------ 0------ 0------|
B|1-------1-------1-------1------|1-------1-------1-------1------|
G|0-------0-------0-------0------|2-------2-------2-------2------|
D|-------------------------------|-------------------------------|
A|3-----------------------2------|0------------------------------|
E|-------------------------------|------------------------3------|
  because                                                 is  a
  yeah            Happiness

  F                               G
e|-------------------------------|-------------------------------|
B|1-------1-------1-------1------|3-------3-------3-------3------|
G|2-------2-------2-------2------|4-------4-------4-------4------|
D|3-------3-------3-------3------|5-------5-------5-------5------|
A|-------------------------------|-------------------------------|
E|1-----------------------1---/--|3------------------------------|
  warm        gun,        momma
                  Bang            bang            shoot

  C                               Am
e|0------ 0------ 0------ 0------|0------ 0------ 0------ 0------|
B|1-------1-------1-------1------|1-------1-------1-------1------|
G|0-------0-------0-------0------|2-------2-------2-------2------|
D|-------------------------------|-------------------------------|
A|3-----------------------2------|0------------------------------|
E|-------------------------------|------------------------3------|
                  Happiness                               is  a
  shoot           Happiness

  F                               G
e|-------------------------------|-------------------------------|
B|1-------1-------1-------1------|3-------3-------3-------3------|
G|2-------2-------2-------2------|4-------4-------4-------4------|
D|3-------3-------3-------3------|5-------5-------5-------5------|
A|-------------------------------|-------------------------------|
E|1-----------------------1---/--|3------------------------------|
  warm        gun         yes,    it  is
                   Bang            bang            shoot

  Fm
e|1------------------------------|-------------------------------|
B|1------------------------------|-------------------------------|
G|1------------------------------|-------------------------------|
D|3------------------------------|-------------------------------|
A|3------------------------------|-------------------------------|
E|1------------------------------|-------------------------------|
  Happiness                     is a warm                 yes,
  Shoot

e|-------------------------------|-------------------------------|
B|-------------------------------|-------------------------------|
G|-------------------------------|-------------------------------|
D|-------------------------------|-------------------------------|
A|-------------------------------|-------------------------------|
E|-------------------------------|-------------------------------|
  it  is                                                      gun

  C                               Am
e|-------------------------------|-------------------------------|
B|----------------1--------------|----------------1--------------|
G|--------0---------------0------|--------2---------------2------|
D|2------------------------------|2------------------------------|
A|3-----------------------2------|0------------------------------|
E|-------------------------------|------------------------3------|

                  Happiness
e|-------------------------------|-------------------------------|
B|-------------------------------|-------------------------------|
G|-------------------------------|-------------------------------|
D|-------------------------------|-------------------------------|
A|3---------------2--------------|0------------------------------|
E|-------------------------------|------------------------3------|

  F                               G
e|-------------------------------|-------------------------------|
B|----------------1--------------|---------------3---------------|
G|--------2---------------2------|--------4---------------4------|
D|3------------------------------|5------------------------------|
A|-------------------------------|-------------------------------|
E|1------------------------------|3------------------------------|
                                       But don't you know that happiness
                  Bang            bang           shoot
e|-------------------------------|-------------------------------|
B|-------------------------------|-------------------------------|
G|-------------------------------|-------------------------------|
D|-------------------------------|-------------------------------|
A|-------------------------------|-------------------------------|
E|1------------------------------|3------------------------------|

  C                               Am
e|-------------------------------|-------------------------------|
B|----------------1--------------|----------------1--------------|
G|--------0---------------0------|--------2---------------2------|
D|2------------------------------|2------------------------------|
A|3-----------------------2------|0------------------------------|
E|-------------------------------|------------------------3------|
                                                      is  a   warm
  shoot           Happiness
e|-------------------------------|-------------------------------|
B|-------------------------------|-------------------------------|
G|-------------------------------|-------------------------------|
D|-------------------------------|------------------------7------|
A|3-----------------------2------|0------------------------------|
E|-------------------------------|-------------------------------|

  F                               G
e|-------------------------------|-------------------------------|
B|----------------1--------------|----------------3--------------|
G|--------2---------------2------|--------4---------------4------|
D|3------------------------------|5------------------------------|
A|-------------------------------|-------------------------------|
E|1------------------------------|3------------------------------|
              gun,        momma
                  is      a       warm            gun
e|-------------------------------|-------------------------------|
B|-------------------------------|-------------------------------|
G|5---7-B-8-R-7-5----------------|-------------------------------|
D|----------------7-------6------|5------------------------------|
A|-------------------------------|----------------7---\---5------|
E|-------------------------------|-------------------------------|

  C
e|0------------------------------|-------------------------------|
B|1------------------------------|-------------------------------|
G|0------------------------------|-------------------------------|
D|2------------------------------|-------------------------------|
A|3------------------------------|-------------------------------|
E|-------------------------------|-------------------------------|

  Yeah
e|-------------------------------|-------------------------------|
B|-------------------------------|-------------------------------|
G|-------------------------------|-------------------------------|
D|2------------------------------|-------------------------------|
A|3------------------------------|-------------------------------|
E|-------------------------------|-------------------------------|


************************************

| /  Slide up
| \  Slide down
| P  Pull off
| B  Bend

************************************
Suggest correction
comments
print report bad tab
10 comments total. Showing first comments.
0 reply
chrstrau 10 Oct 25, 2006 04:38 AM

Brilliant tab, man!

0 reply
stratmaster100 10 Sep 13, 2007 01:58 PM

This tab is great! thanks a lot man!

0 reply
lespaul5391 31 Mar 03, 2008 06:28 PM

spot on! thanks

guest
You may want to rate the tab now too:
select rating
Wanna post a correction for this tab? Suggest correction