Oops, an error
Loading. Please wait.
We have an official Hello Goodbye tab made by UG professional guitarists. Check out the tab »
×

Hello Goodbye bass

3,410 views 15 this week
2 commentsread comments
1 2 3 4 5
2 more votes to show rating
add to favorites
×
Save as Personal and add changes to this tab that will be seen only by you. Learn more ›
×
You can save this tab as Personal to edit and correct it or add notes. All changes will be seen only by you. Learn more »
launch autoscroll
font size
0
reset
guitar tuner
backing track
0:00
0:00
edit
Autoscroll
slow
fast
+/-
esc
set tempo
stop
Author
Difficulty
Song: Hello Goodbye
Authors: John Lennon & Paul McCartney
Band: The Beatles
Record: Magical Mystery Tour
Transcription by TMacoubrie


                               HELLO GOODBYE
                                        Lennon & McCartney


 |------------------------|------------------------|------------------------|
 |2-----------------------|------------------------|4-----------------------|
 |------------------------|2-----------------------|------------------------|
 |------------------------|------------------------|------------------------|
  ^     ^     ^     ^      ^     ^     ^     ^      ^     ^     ^     ^
 You say yes               I say no                You say stop           and


 |------------------------|------------------------|------------------------|
 |6--4--2--1--------------|------------------------|------------1-----------|
 |------------4--2--1-----|---4--1--4-----4--1--4--|------2--4-----4--2p1---|
 |---------------------4--|2-----------2-----------|4--------------------4--|
  ^     ^     ^     ^      ^     ^     ^     ^      ^     ^     ^     ^
  I say   go    go    go                                                 Oh


 |------------------------|------------------------|-----------|
 |------------------------|4-----------------------|-----------|
 |---4--1--4--------1--4--|------------------------|-----------|
 |2-----------2--4--------|------------------------|-----------|
  ^     ^     ^     ^      ^     ^     ^     ^      ^     ^    
 no                       You say goodbye       and I    say hel-  


 |------------------------|------------------------|------------------------|
 |------------------------|------------------------|------------------------|
 |2-----2-----1-----1-----|------------------------|------------------------|
 |------------------------|4-----4-----2-----2-----|0-----0-----3-----3-----|
  ^     ^     ^     ^      ^     ^     ^     ^      ^     ^     ^     ^
lo              Hello  hello         I don't know why you say goodbye I say hel- 
 

 |------------------------|------------------------|------------------------|
 |------------------------|------------------------|------------------------|
 |2-----2-----1-----1-----|------------------------|------------------------|
 |------------------------|4-----4-----2-----2-----|0-----0-----3-----3-----|
  ^     ^     ^     ^      ^     ^     ^     ^      ^     ^     ^     ^
lo              Hello  hello         I don't know why you say goodbye I say hel-


 |---------------------4--|------------------------|------------------------|
 |---------------4-4h6----|2-----------------------|------------------------|
 |2-----2--4--6-----------|------------------------|2-----------------------|
 |------------------------|------------------------|------------------------|
  ^     ^     ^     ^      ^     ^     ^     ^      ^     ^     ^     ^
lo                         I say high              You say low


 |------------------------|------------------------|------------------------|
 |4-----------------------|6--4--2--1--------------|------------------------|
 |------------------------|------------4--2--1-----|---4--1--4--------1--4--|
 |------------------------|---------------------4--|2-----------2--4--------|
  ^     ^     ^     ^      ^     ^     ^     ^      ^     ^     ^     ^
 You say why           and I say       I  don't   know


 |------------------------|------------------------|------------------------|
 |---------2--------------|------------------------|4-----------------------|
 |---2--4-----4--2--1-----|---4—1--4--------1--5---|------------------------|
 |4--------------------4--|2-----------2--4--------|------------------------|
  ^     ^     ^     ^      ^     ^     ^     ^      ^     ^     ^     ^
                       Oh no                       You say goodbye       and


 |------------|------------------------|------------------------|
 |------------|------------------------|------------------------|
 |------------|2-----2-----1-----1-----|------------------------|
 |------------|------------------------|4-----4-----2-----2-----|
  ^     ^      ^     ^     ^     ^      ^     ^     ^     ^     
  I    say hello             Hello  hello          I don't know why


 |------------------------|------------------------|------------------------|
 |------------------------|------------------------|------------------------|
 |------------------------|2-----2-----1-----1-----|------------------------|
 |0-----0-----3-----3-----|------------------------|4-----4-----2-----2-----|
  ^     ^     ^     ^      ^     ^     ^     ^      ^     ^     ^     ^
 you say goodbye I say hello             Hello  hello          I don't know why


 |------------------------|------------------------|------------------------|
 |------------------------|------------1--------1--|2-----------------------|
 |------------------------|2-----2--4-----2--4-----|------------------------|
 |0-----0-----3-----3-----|------------------------|------------------------|
  ^     ^     ^     ^      ^     ^     ^     ^      ^     ^     ^     ^
 you say goodbye I say hello


 |------------------------|------------------------|------------------------|
 |------------------------|4-----------------------|6--4--2--1--------------|
 |2-----------------------|------------------------|------------4--2--1-----|
 |------------------------|------------------------|---------------------4--|
  ^     ^     ^     ^      ^     ^     ^     ^      ^     ^     ^     ^
              Why why why why why why    do you    say     goodbye     good-


 |------------------------|------------------------|------------------------|
 |------------------------|------------1-----------|------------------------|
 |---4--1--4--------1--4--|------2--4-----4--2p1---|---1--4--1--------1--4--|
 |2-----------2--4--------|4--4-----------------4--|2-----------2--4--------|
  ^     ^     ^     ^      ^     ^     ^     ^      ^     ^     ^     ^
 bye                                            Oh no


 |------------------------|------12\---|------------------------|
 |4-----------------------|------------|------------------------|
 |------------------------|------------|2-----2-----1-----1-----|
 |------------------------|------------|------------------------|
  ^     ^     ^     ^      ^     ^      ^     ^     ^     ^
 You say goodbye       and I    say hello             Hello  hel-


 |------------------------|------------------------|------------------------|
 |------------------------|------------------------|------------------------|
 |------------------------|------------------------|2-----2-----1-----1-----|
 |4-----4-----2-----2-----|0-----0-----3-----3-----|------------------------|
  ^     ^     ^     ^      ^     ^     ^     ^      ^     ^     ^     ^
lo          I don't know why you say goodbye I say hello          Hello hel-


 |------------------------|------------------------|---------------------4--|
 |------------------------|------------------------|---------------4-4h6----|
 |------------------------|------------------------|2-----2--4--6-----------|
 |4-----4-----2-----2-----|0-----0-----3-----3-----|------------------------|
  ^     ^     ^     ^      ^     ^     ^     ^      ^     ^     ^     ^
lo          I don't know why you say goodbye I say hello


 |------------------------|------------------------|------------------------|
 |2-----------------------|------------------------|4-----------------------|
 |------------------------|2-----------------------|------------------------|
 |------------------------|------------------------|------------------------|
  ^     ^     ^     ^      ^     ^     ^     ^      ^     ^     ^     ^
 You say yes               I say no                You say stop           and


 |------------------------|------------------------|------------------------|
 |6--4--2--1--------------|------------------------|---------1--------------|
 |------------4--2--1-----|---4--1--4--------1--4--|---2--1-----4--2--1-----|
 |---------------------4--|2-----------2--4--------|4--------------------4--|
  ^     ^     ^     ^      ^     ^     ^     ^      ^     ^     ^     ^
 I say    go    go    go                        Oh                       Oh


 |------------------------|------------------------|---10/12-12-12-12-12\---|
 |------------------------|4-----------------------|------------------------|
 |---4--1--4--------1--4--|------------------------|------------------------|
 |2-----------2--4--------|------------------------|------------------------|
  ^     ^     ^     ^      ^     ^     ^     ^      ^           ^
 no                       You say goodbye       and I          say       hel-  


 |------------------------|------------------------|------------------------|
 |------------------------|------------------------|------------------------|
 |2-----2-----1-----1-----|------------------------|------------------------|
 |------------------------|4-----4-----2-----2-----|0-----0-----3-----3-----|
  ^     ^     ^     ^      ^     ^     ^     ^      ^     ^     ^     ^
lo              Hello  hello         I don't know why you say goodbye I say hel- 
 

 |------------------------|------------------------|------------------------|
 |------------------------|------------------------|------------------------|
 |2-----2-----1-----1-----|------------------------|------------------------|
 |------------------------|4-----4-----2-----2-----|0-----0-----3-----3-----|
  ^     ^     ^     ^      ^     ^     ^     ^      ^     ^     ^     ^
lo             Hello  hello          I don't know why you say goodbye I say hel-


 |------------------------|------------------------|------------------------|
 |------------------------|------------------------|------------------------|
 |2-----2-----1-----1-----|------------------------|------------------------|
 |------------------------|4-----4-----2-----2-----|0-----0-----3-----3-----|
  ^     ^     ^     ^      ^     ^     ^     ^      ^     ^     ^     ^
lo              Hello  hello         I don't know why you say goodbye I say hel- 


 |------------------------|------------------------|------------------------|
 |---5-----5-----4-----4--|---3-----3-----2-----2--|------------------------|
 |------------------------|------------------------|2-----------------------|
 |3-----3-----2-----2-----|1-----1-----0-----0-----|------------------------|
  ^     ^     ^     ^      ^     ^     ^     ^      ^     ^     ^     ^
lo                                              Hello


 |------------------------|------------------------|------------------------|
 |------------------------|------------------------|------------------------|
 |------------------------|2-----2-----2-----2-----|2-----2-----2-----2-----|
 |------------------------|------------------------|------------------------|
  ^     ^     ^     ^      ^     ^     ^     ^      ^     ^     ^     ^
                          Hel-  lo        he- ba hello-   a


 |------------------------|------------------------|------------------------|
 |------------------------|------------------------|------------------------|
 |2-----2-----2-----2-----|2-----2-----2-----2-----|2-----2-----2-----2-----|
 |------------------------|------------------------|------------------------|
  ^     ^     ^     ^      ^     ^     ^     ^      ^     ^     ^     ^
 Hel-   lo       he- ba hello-   a                  Fade out

            
            
Suggest correction
Creating personal tab
Creating personal tab
You can edit any tab online and save it as your Personal.

You can edit, replace or remove any tab part or add personal notes – all changes will be seen only by you.

Personal tabs can be accessed anytime from any device, even offline.
Learn more »
Give kudos to tab author, rate the tab!
1 2 3 4 5
comments
print report bad tab
2 comments total.
0 reply
R8:31b 1,731 Jan 21, 2010 03:33 PM

nope, it's a step too low :/

+1 reply
zatan130 36 May 24, 2012 10:56 PM

There's a version of this song that was on the Ed Sullivan show, and for that version, this tab is correct.

guest
You may want to rate the tab now too:
select rating
Wanna post a correction for this tab? Suggest correction