Oops, an error
Loading. Please wait.
We have an official Helter Skelter tab made by UG professional guitarists. Check out the tab »
×
2,614 views 18 this week
1 commentread comment
1 2 3 4 5
1 last vote to show rating
add to favorites
×
Save as Personal and add changes to this tab that will be seen only by you. Learn more ›
×
You can save this tab as Personal to edit and correct it or add notes. All changes will be seen only by you. Learn more »
launch autoscroll
font size
0
reset
transpose
0
reset
simplify chords
display chords
guitar tuner
backing track
0:00
0:00
edit
Autoscroll
slow
fast
+/-
esc
set tempo
stop
Author
Difficulty
Strumming
There is no strumming pattern for this song yet. and get +5 IQ
It's the version acoustic ( demo ) of Helter Skelter !
 See the results at https://www.youtube.com/watch?v=JPM7MCAiaFs&nohtml5=False

Chords Special :

E7 *  :  = 022434
E7/2* :  = 011323
E7/G *:  = 022435
G :      = 355400
A :      = 577600



E7 *   E7/2 *  E7 * E7/2 * E7 *  E7/G *
Do you, don’t you want me to love you? 

E7 *   E7/2 *  E7 * E7/2 *  E7 *             E7/G *
I’m coming down fast, but I’m miles above you-ou.

E7 *                   E7/2 *
Tell me, tell me, tell me Come on

G
 tell me the answer,
A                                                 E7 *
Well, you may be a lover, but you ain’t no dancer.

E7 * E7/G * E7 * E7/G *


Chorus:
            A
-|----------0---0---0---0-----------------------------------------------
-|----------2---2---4---4-----------------------------------------------
-|----------2---2---4---4--0-----------------------------------------
-|----------2---2---4---4----4--2--0--------------------------------
-|----------0---0---0---0------------4--2--0----------------------
-|------------------------------------------------------------------
    Well, Helter Skelter  Tu Tu Tu  Du DU du DU
     E
-|---0---0---0---0------------------------------------------------------
-|---0---0---0---0------------------------------------------------------
-|---2---2---4---4------------------------------------------------------
-|---2---2---4---4--0------------------------------------------------
-|---2---2---4---4----4--2--0---------------------------------------
-|---0---0---0---0------------4--2--0-----------------------------
    Helter skelter  Tu Tu Tu Du DU du Du


E7 * ( see the video for play )
 Du Du Du DuDu Du Du Du




( If You want singin' , singin in falsetto )

Thanks Beltran Nathan.

            
            
Suggest correction
Creating personal tab
Creating personal tab
You can edit any tab online and save it as your Personal.

You can edit, replace or remove any tab part or add personal notes – all changes will be seen only by you.

Personal tabs can be accessed anytime from any device, even offline.
Learn more »
Give kudos to tab author, rate the tab!
1 2 3 4 5
comments
print report bad tab
1 comment total.
+1 reply
thefacemashfr1 10 Apr 15, 2016 04:04 AM

Exactly my desire !

guest
You may want to rate the tab now too:
select rating
Wanna post a correction for this tab? Suggest correction