Oops, an error
Loading. Please wait.
We have an official Helter Skelter tab made by UG professional guitarists. Check out the tab »
×
1,281 views 1 this week
no commentswrite comment
1 2 3 4 5
1 last vote to show rating
add to favorites
×
Save as Personal and add changes to this tab that will be seen only by you. Learn more ›
×
You can save this tab as Personal to edit and correct it or add notes. All changes will be seen only by you. Learn more »
launch autoscroll
font size
0
reset
guitar tuner
backing track
0:00
0:00
edit
Autoscroll
slow
fast
+/-
esc
set tempo
stop
Author
Difficulty
          -----------------------------------------------------

                       THE BEATLES - HELTER SKELTER
                              Paul McCartney
            From THE WHITE ALBUM, released on Friday November
                                22nd, 1968

          -----------------------------------------------------





     INTRO



    G|-------------------------------|-------------------------------|
    D|-------------------------------|-------------------------------|
    A|-------------------------------|-------------------------------|
    E|-------------------------------|-------------------------------|





    G|-------------------------------|-------------------------------|
    D|-------------------------------|-------------------------------|
    A|-------------------------------|-------------------------------|
    E|-------------------------------|-------------------------------|




       00:12

    G|-------------------------------|-------------------------------|
    D|-------------------------------|-------------------------------|
    A|-------------------------------|7---7---7---7---7-5-7-5-7-5-7--|
    E|3---3---3---3---3-3-3-3-3-3-3--|-------------------------------|





       VERSE
       00:18

    G|-------------------------------|-------------------------------|
    D|-------------------------------|-------------------------------|
    A|7-7-7-7-7-7-7-7-7-7-7-7-7-7-7--|7---7-7-7---7-7-7---7-7-7-7-7--|
    E|-------------------------------|-------------------------------|





    G|-------------------------------|-------------------------------|
    D|-------------------------------|-------------------------------|
    A|7---7-7-7-7-7P5-7-7-7-7-7-7-7-7|7-7-7-7-7---7-7-7-7-7-7-7-7-7--|
    E|-------------------------------|-------------------------------|





    G|-------------------------------|-------------------------------|
    D|-------------------------------|-------------------------------|
    A|7---7-7-7---7-7-5H7-7-7-7-7-7--|-------------------------------|
    E|-------------------------------|3---3---3---3-3-3---3-3-3---3--|





    G|-------------------------------|-------------------------------|
    D|-------------------------------|-------------------------------|
    A|-------------------------------|5H7-7-7-7-7-7-7-7-7-7-7-7-7-7--|
    E|5------------------------------|-------------------------------|





       CHORUS
       00:41

    G|----------------0--------------|-------------------------------|
    D|------------------4-2-0--------|2---2-2-2-2-2---0--------------|
    A|0---0---0-0-0-----------4-2-0--|------------------4-2-0--------|
    E|-------------------------------|------------------------4-2-0--|




  
    G|----------------0--------------|-------------------------------|
    D|------------------4-2-0--------|2------------------------------|
    A|0---0-0-0-0-0-----------4-2-0--|-------------------------------|
    E|-------------------------------|-------------------------------|





    G|-------------------------------|-------------------------------|
    D|-------------------------------|-------------------------------|
    A|7-7-7-7-7-7-7-7-7-7-7-7-5H7-5H7|7-7-7-7-7-7-7-7-5H7-5H7-5H7-5H7|
    E|-------------------------------|-------------------------------|





       VERSE
       00:58

    G|-------------------------------|-------------------------------|
    D|-------------------------------|-------------------------------|
    A|7---7-7-7---7-7-7-7-7-7-7-7-7--|5H7-7-7-5H7-7-7-5H7-5H7-5H7-5H7|
    E|-------------------------------|-------------------------------|





    G|-------------------------------|-------------------------------|
    D|-------------------------------|-------------------------------|
    A|7---7---7---7-7-7-7-7-7-7-7-7--|5H7-7-7-7-7-7-7-5H7-7-7-7-7-7--|
    E|-------------------------------|-------------------------------|





    G|-------------------------------|-------------------------------|
    D|-------------------------------|-------------------------------|
    A|-------------------------------|-------------------------------|
    E|3---3---3---3---3---3---3---3--|5------------------------------|





    G|-------------------------------|
    D|-------------------------------|
    A|5H7-7-7-7-7-7-7-7-7-7-7-7-7-7--|
    E|-------------------------------|





       CHORUS
       01:18

    G|----------------0--------------|-------------------------------|
    D|------------------4-2-0--------|2---2-2-2-2-2---0--------------|
    A|0---0---0---0-----------4-2-0--|------------------4-2-0--------|
    E|-------------------------------|------------------------4-2-0--|





    G|----------------0--------------|-------------------------------|
    D|------------------4-2-0--------|2------------------------------|
    A|0---0-0-0-0-0-----------4-2-0--|-------------------------------|
    E|-------------------------------|-------------------------------|





    G|9-9-9-9-9-9-9-9-9-9-9-9-9P7----|-------------------------------|
    D|----------------------------9P7|-------------------------------|
    A|-------------------------------|5H7-7-7-7-7-7-7-5-----4--------|
    E|-------------------------------|----------------------------4--|





       GUITAR SOLO
       01:35

    G|-------------------------------|-------------------------------|
    D|-------------------------------|-------------------------------|
    A|-------------------------------|7-7-7--5H7--7---7-7-7-5---4----|
    E|5---5---5-5-5---5-5-5-5---5-5--|----------------------------7--|





    G|-------------------------------|-------------------------------|
    D|-------------------------------|-------------------------------|
    A|-------------------------------|7------------------------------|
    E|5---5---5---5---5---5---5---5--|-------------------------------|
  




       INTERLUDE
       01:46

    G|9-9-9-9-9-9-9------------------|9-9-9-9-9-9-9------------------|
    D|-------------------------------|-------------------------------|
    A|----------------7-7-7-7-7-7-7--|----------------7-7-7-7-7-7-7--|
    E|-------------------------------|-------------------------------|




  
    G|9-9-9-9-9-9-9-9----------------|-------------------------------|
    D|-------------------------------|-------------------------------|
    A|----------------7-7-7-7-7-7-7--|-------------------------------|
    E|-------------------------------|3---3---3---3---3-3-3-3---3-5--|





    G|-------------------------------|
    D|-------------------------------|
    A|7---7---7-7-7-7-5H7-5H7-5H7-5H7|
    E|-------------------------------|





       VERSE
       02:01

    G|-------------------------------|-------------------------------|
    D|-------------------------------|-------------------------------|
    A|7---7-7-7---7---7-7-7-7-7-7-7-7|7-7-7-7-5H7-7---5H7-5H7-5H7-5H7|
    E|--------------7----------------|-------------------------------|





    G|-------------------------------|-------------------------------|
    D|-------------------------------|-------------------------------|
    A|7-7-7-7-7---7-7-7-7-7-7-7-7-7--|5H7-7---5H7-5H7-----5H7-----7--|
    E|-------------------------------|------7---------5H7-----5H7----|





    G|-------------------------------|-------------------------------|
    D|-------------------------------|-------------------------------|
    A|-------------------------------|-------------------------------|
    E|3---3---3---3---3---3---3---3--|5------------------------------|





    G|-------------------------------|
    D|-------------------------------|
    A|5H7-7-7-7-7-7-7-7-7-7-7-7-7-7--|
    E|-------------------------------|





       CHORUS
       02:21

    G|----------------0--------------|-------------------------------|
    D|------------------4-2-0--------|2---2-2-2-2-2---0--------------|
    A|0---0-0-0-0-0-----------4-2-0--|------------------4-2-0--------|
    E|-------------------------------|------------------------4-2-0--|





    G|----------------0--------------|-------------------------------|
    D|------------------4-2-0--------|2------------------------------|
    A|0---0-0-0-0-0-----------4-2-0--|-------------------------------|
    E|-------------------------------|-------------------------------|





       OUTRO
       02:33

    G|-------------------------------|-------------------------------|
    D|-------------------------------|-------------------------------|
    A|7-7-7-7-7-7-7-7-7-7-7-7-7-7-7-7|7-7-7-7-7-7-7-7-5H7-5H7-5H7-5H7|
    E|-------------------------------|-------------------------------|




  
    G|-------------------------------|-------------------------------|
    D|-------------------------------|-------------------------------|
    A|7-7-7-7-7-7-7-7-5H7-5H7-5H7-5H7|7-7-7-7-7-7-7-7-----5H7-----5H7|
    E|-------------------------------|----------------5H7-----5H7----|





    G|-------------------------------|-------------------------------|
    D|-------------------------------|-------------------------------|
    A|7-7-7-7-7-7-7-7-----5H7-----5H7|7-7-7-7-7-7-7-7-----5H7-----5H7|
    E|----------------5H7-----5H7----|----------------5H7-----5H7----|





    G|-------------------------------|-------------------------------|
    D|-------------------------------|-------------------------------|
    A|7-7-7-7-7-7-7-7-----5H7-----5H7|7-7-7-7-7-7-7-7-----5H7-5H7-5H7|
    E|----------------5H7-----5H7----|----------------5H7------------|





    G|----------------------------------------------------------------|
    D|----------------------------------------------------------------|
    A|----------------------------------------------------------------|
    E|0---------------------------------------------------------------|





    G|---------------------7----------------------------|
    D|--------------------------------------------------|
    A|--------------------------------------------------|
    E|(0)--------------------0--------------------------|




       03:11

    G|-------------------------------|-------------------------------|
    D|-------------------------------|-------------------------------|
    A|7-7-7-7-7-7-7-7-5H7-7-7-7P5-5H7|7-7-7-7-7P5-5-5-5H7-5H7-5H7-5H7|
    E|-------------------------------|-------------------------------|





    G|-------------------------------|-------------------------------|
    D|-------------------------------|-------------------------------|
    A|----5H7-----5H7-7-7-7-7-7-5-7--|7-7-7-7-7-7-7-7-5H7-5H7-5H7-5H7|
    E|5H7-----5H7--------------------|-------------------------------|





    G|------------------7-9-9--------|------------------7-9-9--------|
    D|----------5-7-7-9--------------|----------5-7-7-9--------------|
    A|7-7-7-7-7---------------5H7-7P5|7-7-7-7-7---------------7-5-7--|
    E|-------------------------------|-------------------------------|





    G|------------------7-9-9--------|------------------7-----9------|
    D|----------5-7-7-9--------------|------------5-7----------------|
    A|7---7-7-7---------------5H7-7P5|7-7-7-7-7-7--------------------|
    E|-------------------------------|-------------------------------|





    G|--------------7---7-9P7-9P7-9P7|9999999999999-7-9-7------------|
    D|------------9------------------|--------------------9\---------|
    A|7-7-5-7------------------------|------------------------7------|
    E|-------------------------------|--------------------------0----|




                                      03:44

    G|-------------------------------|--------------------------7----|
    D|-------------------------------|--------------------5H7--------|
    A|5---7---5H7-5H7-5H7-5H7-5H7-5H7|5H7-5H7-5H7-5H7-5H7------------|
    E|-------------------------------|-------------------------------|





    G|--------------------------7----|--------------------------7----|
    D|--------------------5-7--------|--------------------5H7--------|
    A|7---7P5-5H7-5H7-5H7------------|7---5H7-5H7-5H7-5H7------------|
    E|-------------------------------|-------------------------------|





    G|--------------------------7----|--------------------------7----|
    D|--------------------5H7--------|--------------------5H7--------|
    A|7---5H7-5H7-5H7-5H7------------|7---7-5-7-5-7-5-7-5------------|
    E|-------------------------------|-------------------------------|





    G|--------------------------7----|--------------------------7----|
    D|--------------------5H7--------|--------------------5H7--------|
    A|7---5H7-5H7-5H7-5H7------------|7---5H7-5H7-5H7-5H7------------|
    E|-------------------------------|-------------------------------|





    G|-------------------------------|-------------------------------|
    D|-------------------------------|-------------------------------|
    A|7---7-7-7-7-7-7-7--------------|-------------------------------|
    E|------------------9---7---5-4--|2-0---2-0---2-0---2-0---2------|





    G|-------------------------------|-------------------------------|
    D|-------------------------------|-------------------------------|
    A|7-\-----7-\-----7-\-----7-\----|7--7--7--7--7--7--7--7--7---7--|
    E|-------------------------------|-------------------------------|





    G|----------------9-\------------|-------------------------------|
    D|------------------------9-\----|-------------------------------|
    A|-------------------------------|-------------------------------|
    E|0------------------------------|0------------------------------|

            
            
Suggest correction
Creating personal tab
Creating personal tab
You can edit any tab online and save it as your Personal.

You can edit, replace or remove any tab part or add personal notes – all changes will be seen only by you.

Personal tabs can be accessed anytime from any device, even offline.
Learn more »
Give kudos to tab author, rate the tab!
1 2 3 4 5
comments
print report bad tab
guest
You may want to rate the tab now too:
select rating
Wanna post a correction for this tab? Suggest correction