Oops, an error
Loading. Please wait.
We have an official Here Comes The Sun tab made by UG professional guitarists. Check out the tab »
×

Here Comes The Sun Tab

version 3
version 3

Whole song

900,827 views 87 this week
52 commentsread comments
1 2 3 4 5
x 117
add to favorites
launch autoscroll
font size
0
reset
how to read this tab
guitar tuner
backing track
0:00
0:00
Autoscroll
slow
fast
+/-
esc
set tempo
stop
Author
-----------------------------------------------------------
  
  THE BEATLES - HERE COMES THE SUN (Harrison) From ABBEY ROAD 
                album. Released on 26th September 1969.

  -----------------------------------------------------------

  Tabbed by:PJVillanueva



  Lyrics

[Intro]

  Here comes the sun, here comes the sun,
  And I say it's all right
  
  
[Verse 1]

  Little darling, it's been a long cold lonely winter
  Little darling, it feels like years since it's been here
  Here comes the sun, here comes the sun
  And I say it's all right
  

[Verse 2]

  Little darling, the smiles returning to the faces
  Little darling, it seems like years since it's been here
  Here comes the sun, here comes the sun
  And I say it's all right
  
  
[Chorus]

  Sun, sun, sun, here it comes
  Sun, sun, sun, here it comes
  Sun, sun, sun, here it comes
  Sun, sun, sun, here it comes
  Sun, sun, sun, here it comes
  
  
[Verse 3]

  Little darling, I feel that ice is slowly melting
  Little darling, it seems like years since it's been clear
  Here comes the sun, here comes the sun,
  And I say it's all right
  It's all right





                 (Use a capo on the seventh fret)



[Intro]
                                    
  D             Dsus2 D                       Dsus2   D       G
e|------- 2------ 0---2-- -------|------- 2---0-- ------- -------|
B|--------3---3---------------3--|--------3-----------3-------0--|
G|--------2-------------------2--|--------2-----------2-------0--|
D|--------0-------0-------0------|0-------0-------0-------0------|
A|-------------------------------|-------------------------------|
E|-------------------------------|-------------------------------|




              G6      G           A Asus2 A Asus4     A       D
e|------- ----0-- ------- -------|------- ------- ----0-- -------|
B|----3-------0-------3-------0--|2---0---2---3---------------3--|
G|----0-------0-------0-------0--|2-------2-------2-------2---2--|
D|0-------0-------0-------0------|2-------2-------2-------2------|
A|2-------2-------2-------2------|0-------0-------0-------0------|
E|3-------3-------3-------3------|-------------------------------|




                Dsus2 D                      Dsus2    D       G
e|------- 2------ 0---2-- -------|------- 2---0-- ------- -------|
B|--------3---3---------------3--|--------3-----------3-------0--|
G|--------2-------------------2--|--------2-----------2-------0--|
D|0-------0-------0-------0------|0-------0-------0-------0------|
A|-------------------------------|-------------------------------|
E|-------------------------------|-------------------------------|




      Gmaj7   G6      G       A
e|----2-- ----0-- ------- -------|------- ------- ------- -------|
B|----0-------0-------3-------2--|-------------------------------|
G|----0-------0-------0-------2--|-------------------------------|
D|0-------0-------0-------0---2--|-------------------------------|
A|2-------2-------2-------2---0--|-------------------------------|
E|3-------3-------3-------3------|-------------------------------|



[00:15]

  D         Dsus2     D                                       G
e|------- 2---0-- ----2-- -------|------- 2------ 0---2-- -------|
B|--------3-----------3-------3--|--------3---3---3-------3---0--|
G|--------2-----------2-------2--|----2---2-------2-------2---0--|
D|0-------0-------0-------0------|0-------0-------0-------0------|
A|-------------------------------|-------------------------------|
E|-------------------------------|-------------------------------|
          Here        the     sun         doo doo doo doo
              comes



        Gmaj7 G6    Gmaj7     E7
e|------- 2---0-- ----2-- -------|------- ------- ------- -------|
B|--------0---0-------0-------3--|----3---3-------3-------3------|
G|--------0---0-------0-------1--|----1---1-------1-------1------|
D|0-------0-------0-------0---2--|----2---2-------2-------2------|
A|2-------2-------2-------2---2--|----2---2-------2-------2------|
E|3-------3-------3-------3------|0-------0-------0-------0------|
          Here        the     sun             I       say
              comes



  D           Dsus2   D
e|----2-- ----0-- ------- -------|------- 0------ ----0-- -------|
B|----3-------3-------3----------|----3-----------3-----------3--|
G|----2-------2-------2-------2-/|4-----------2-----------0------|
D|0-------0-------0--------------|-------------------------------|
A|-------------------------------|-------------------------------|
E|-------------------------------|-------------------------------|
      It's    allright
  

                                  00:27

[Verse]

                                  D             Dsus2 D
e|0------ ----0-- ------- -------|------- 2------ 0---2-- -------|
B|--------3-------3---2---0------|--------3---3---------------3--|
G|----2-----------2-------2---2--|--------2-------------------2--|
D|-------------------------------|0-------0-------0-------0------|
A|----------------0-------0------|-------------------------------|
E|-------------------------------|-------------------------------|
                                          Little  darling



                              G             
e|------- 2---0-- ------- -------|------- ----0-- ------- -------|
B|--------3-----------3-------0--|----3-------0-------3-------0--|
G|--------2-------------------0--|----0-------0-------0-------0--|
D|0-------0-------0-------0------|0-------0-------0-------0------|
A|-------------------------------|2-------2-------2-------2------|
E|-------------------------------|3-------3-------3-------3------|
       it's    been  a        long    cold    lonely          winter




  A Asus2 A Asus4     A           D             Dsus2 D
e|------- ------- ----0-- -------|------- 2------ 0---2-- -------|
B|2---0---2---3-------2----------|--------3---3---------------3--|
G|2-------2-------2--------------|--------2-------------------2--|
D|2-------2-------2--------------|0-------0-------0-------0------|
A|0-------0-------0-------0------|-------------------------------|
E|-------------------------------|-------------------------------|
                                          Little darling




                              G         Gmaj7 G6      G       A
e|------- 2---0-- ------- -------|------- 2---0-- ------- -------|
B|--------3-----------3-------0--|--------0---0-------3-------2--|
G|--------2-------------------0--|------------0-------0-------2--|
D|0-------0-------0-------0------|0-------0-------0-------0---2--|
A|-------------------------------|2-------2-------2-------2---0--|
E|-------------------------------|3-------3-------3-------3------|
      it      feels   like    years       since       been    here
                                              it's
                                  

[Chorus]

(00:42)
                                  D         Dsus2     D
e|------- ------- ------- -------|------- 2---0-- ----2-- -------|
B|----2-------2---2---2---2---2--|--------3-----------3-------3--|
G|----2-------2---2---2---2---2--|--------2-----------2-------2--|
D|2---2---2---2---2---2---2---2--|0-------0-------0-------0------|
A|0-------0-------0-------0------|-------------------------------|
E|-------------------------------|-------------------------------|
                                          Here        the     sun
                                              comes


                                  
                Dsus2 D           G     Gmaj7 G6    Gmaj7     E7
e|------- 2------ 0---2-- -------|------- 2---0-- ----2-- -------|
B|--------3---3---3-------3------|--------0---0-------0-------3--|
G|----2---2-------2-------2------|--------0---0-------0-------1--|
D|0-------0-------0-------0------|0-------0-------0-------0---2--|
A|-------------------------------|2-------2-------2-------2---2--|
E|-------------------------------|3-------3-------3-------3------|
          Doo doo doo doo                 Here        the     sun
                                              comes



                                  D         Dsus2     D
e|------- ------- ------- -------|----2-- ----0-- ------- -------|
B|----3---3-------3-------3------|----3-------3-------3----------|
G|----1---1-------1-------1------|----2-------2-------2-------2--|
D|----2---2-------2-------2------|0-------0-------0-------0------|
A|----2---2-------2-------2------|-------------------------------|
E|0-------0-------0-------0------|-------------------------------|
              I      say                  it's 
                                              allright



                                                Asus4 A Asus2 A
e|------- 0------ ----0-- -------|0------ ----0-- ------- -------|
B|----3-----------3-----------3--|--------3-------3---2---0------|
G|4-----------2-----------0------|----2-----------2-------2---2--|
D|-------------------------------|-------------------------------|
A|-------------------------------|----------------0-------0------|
E|-------------------------------|-------------------------------|




  D             Dsus2 D       D6  A Asus2 A Asus4     A
e|------- 2------ 0---2-- -------|------- ------- ----0-- -------|
B|--------3---3---------------0--|2---0---2---3-------2----------|
G|--------2-------------------2--|2-------2-------2-------2------|
D|0-------0-------0-------0---0--|2-------2-------2-------2------|
A|-------------------------------|0-------0-------0-------0------|
E|-------------------------------|-------------------------------|


[Verse]

(00:59)
               
e|------- 2------ 0---2-- -------|------- 2---0-- ------- -------|
B|--------3---3---------------3--|--------3-----------3-------0--|
G|--------2-------------------2--|--------2-------------------0--|
D|0-------0-------0-------0------|0-------0-------0-------0------|
A|-------------------------------|-------------------------------|
E|-------------------------------|-------------------------------|
          Little  darling                 the smiles      returning




e|------- ----0-- ------- -------|------- ------- ----0-- -------|
B|----3-------0-------3-------0--|2---0---2---3-------2----------|
G|----0-------0-------0-------0--|2-------2-------2-------2------|
D|0-------0-------0-------0------|2-------2-------2-------2------|
A|2-------2-------2-------2------|0-------0-------0-------0------|
E|3-------3-------3-------3------|-------------------------------|
              to      the     faces




e|------- 2------ 0---2-- -------|------- 2---0-- ------- -------|
B|--------3---3---------------3--|--------3-----------3-------0--|
G|--------2-------------------2--|--------2-------------------0--|
D|0-------0-------0-------0------|0-------0-------0-------0------|
A|-------------------------------|-------------------------------|
E|-------------------------------|-------------------------------|
          Little  darling                 it  seems   like    years




e|----2-- ----0-- ------- -------|------- ------- ------- -------|
B|----0-------0-------3-------2--|2-------2---2---3---3-------3--|
G|----0-------0-------0-------2--|2-------2---2---2---2---2---2--|
D|0-------0-------0-------0---2--|2-------2---2---2---2---2------|
A|2-------2-------2-------2------|0-------0-------0-------0------|
E|3-------3-------3-------3------|-------------------------------|
          since       been    here
              it's


[Chorus]

(01:14)

e|------- 2---0-- ----2-- -------|------- 2------ 0---2-- -------|
B|--------3-----------3-------3--|--------3---3---------------0--|
G|--------2-------------------2--|----2---2-------------------0--|
D|0-------0-------0-------0------|0-------0-------0-------0------|
A|-------------------------------|-------------------------------|
E|-------------------------------|-------------------------------|
          Here        the     sun
              comes



e|------- 2---0-- ----2-- -------|------- ------- ------- -------|
B|--------0---0-------0-------3--|----3---3-------3-------3------|
G|--------0---0-------0-------1--|----1---1-------1-------1------|
D|0-------0-------0-------0---2--|----2---2-------2-------2------|
A|2-------2-------2-------2---2--|----2---2-------2-------2------|
E|3-------3-------3-------3------|0-------0-------0-------0------|
          Here        the     sun             I       say
              comes



e|----2-- ----0-- ------- -------|------- 0------ ----0-- -------|
B|----3-------3-------3----------|----3-----------3-----------3--|
G|----2-------2-------2-------2-/|4-----------2-----------0------|
D|0-------0-------0-------0------|-------------------------------|
A|-------------------------------|-------------------------------|
E|-------------------------------|-------------------------------|
      it's    allright
   
        


e|0------ ----0-- ------- -------|------- 2------ 0---2-- -------|
B|--------3-------3---2---0------|--------3---3---------------0--|
G|----2-----------2-------2---2--|--------2-------------------0--|
D|----------------2-------2------|0-------0-------0-------0------|
A|----------------0-------0------|-------------------------------|
E|-------------------------------|-------------------------------|


(01:29)

  7/8 Time                     11/8 
  A                            F           C           G              
e|------- ------- ------- ----|------- ------- ------- ------- ------- ---|
B|2-------2-------------------|--------1----------------------------------|
G|2-------2-------------------|----2---------------0-----------0----------|
D|2-------2---------------2---|3---------------2-----------0--------------|
A|0-------0-------0---4-------|------------3-----------2---------------2--|
E|----------------------------|------------------------------------3------|



  4/4 
  D
e|2------ 2---2-- 2------ 2------|
B|3-------3---3---3-------3------|
G|2-------2---2---2-------2------|
D|0-------0-------0-------0------|
A|-------------------------------|
E|-------------------------------|



   

e|------- ------- ------- ----|------- ------- ------- ------- ------- ---|
B|2-------2-------------------|--------1----------------------------------|
G|2-------2-------------------|----2---------------0-----------0----------|
D|2-------2---------------2---|3---------------2-----------0--------------|
A|0-------0-------0---4-------|------------3-----------2---------------2--|
E|----------------------------|------------------------------------3------|
                               Sun         sun         sun         here 
                                                                       it



e|2------ 2------ 2------ 2------|
B|3-------3-------3-------3------|
G|2-------2-------2-------2------|
D|0-------0-------0-------0------|
A|-------------------------------|
E|-------------------------------|
  comes





e|------- ------- ------- ----|------- ------- ------- ------- ------- ---|
B|2-------2-------------------|--------1----------------------------------|
G|2-------2-------------------|----2---------------0-----------0----------|
D|2-------2---------------2---|3---------------2-----------0--------------|
A|0-------0-------0---4-------|------------3-----------2---------------2--|
E|----------------------------|------------------------------------3------|
                               Sun         sun         sun         here 
                                                                       it



e|2------ 2------ ----2-- -------|
B|3-------3-----------3-------2--|
G|2-------2-----------2-------2--|
D|0-------0-------------------2--|
A|-------------------------------|
E|-------------------------------|
  comes



  

e|------- ------- ------- ----|------- ------- ------- ------- ------- ---|
B|----0---2-------------------|--------1----------------------------------|
G|----2---2-------------------|----2---------------0-----------0----------|
D|----2---2---------------2---|3---------------2-----------0--------------|
A|0-------0-------0---4-------|------------3-----------2---------------2--|
E|----------------------------|------------------------------------3------|
                               Sun         sun         sun         here        
                                                                       it



e|2------ 2------ ----2-- -------|
B|3-------3-----------3-------2--|
G|2-------2-----------2-------2--|
D|0-------0-------0-------0---2--|
A|-------------------------------|
E|-------------------------------|
  comes



 

e|------- ------- ------- ----|------- ------- ------- ------- ------- ---|
B|----0---2-------------------|--------1----------------------------------|
G|----2---2-------------------|----2---------------0-----------0----------|
D|----2---2---------------2---|3---------------2-----------0--------------|
A|0-------0-------0---4-------|------------3-----------2---------------2--|
E|----------------------------|------------------------------------3------|
                               Sun         sun         sun         here 
                                                                       it



e|2------ 2------ ----2-- -------|
B|3-------3-----------3-------2--|
G|2-------2-----------2-------2--|
D|0-------0-------0-------0---2--|
A|-------------------------------|
E|-------------------------------|
  comes



  

e|------- ------- ------- ----|------- ------- ------- ------- ------- ---|
B|----0---2-------------------|--------1----------------------------------|
G|----2---2-------------------|----2---------------0-----------0----------|
D|----2---2---------------2---|3---------------2-----------0--------------|
A|0-------0-------0---4-------|------------3-----------2---------------2--|
E|----------------------------|------------------------------------3------|
                               Sun         sun         sun         here 
                                                                       it

   4/4
                                  02:04
  D                           A                     Asus2 A  Asus4
e|2------ 2------ 2------ 2------|------- ------- ------- -------|
B|3-------3-------3-------3---2--|--------2-------2---0---2---3--|
G|2-------2-------2-------2---2--|--------2-------2---2---2---2--|
D|0-------0-------0-------0---2--|--------2-------2---2---2---2--|
A|-------------------------------|0-------0-------0-------0------|
E|-------------------------------|-------------------------------|
  comes



                      A Asus4 A                     Asus4     A7
e|------- ------- ------- ----0--|------- 0------ 0------ 0---3--|
B|--------3-------3---2---3---2--|--------2-------2---3---2---2--|
G|--------2-------2-------2---2--|--------2-------2---2---2---2--|
D|--------2-------2-------2------|-------------------------------|
A|0-------0-------0-------0------|0-------0-------0-------0------|
E|-------------------------------|-------------------------------|


[Verse]

(02:12)  

e|------- ------- ------- -------|------- 2------ 0---2-- -------|
B|----2---2-------2-------2------|--------3---3---------------3--|
G|----0---0-------0-------0------|--------2-------------------2--|
D|----2---2-------2-------2------|0-------0-------0-------0------|
A|0-------0-------0-------0------|-------------------------------|
E|-------------------------------|-------------------------------|
                                          Little  darling




e|------- 2---0-- ------- -------|------- ----0-- ------- -------|
B|--------3-----------3-------0--|----3-------0-------3-------0--|
G|--------2-----------2-------0--|----0-------0-------0-------0--|
D|0-------0-------0-------0------|0-------0-------0-------0------|
A|-------------------------------|2-------2-------2-------2------|
E|-------------------------------|3-------3-------3-------3------|
      I       feel    that    ice     is      slowly      melting




e|------- ------- ----0-- -------|------- 2------ 0---2-- -------|
B|2---0---2---3-------2----------|--------3---3---------------3--|
G|2-------2----------------------|--------2-------------------2--|
D|2-------2----------------------|0-------0-------0-------0------|
A|0-------0-------0-------0------|-------------------------------|
E|-------------------------------|-------------------------------|
                                           Little  darling




e|------- 2---0-- ------- -------|----2-- ----0-- ------- -------|
B|--------3-----------3-------0--|----0-------0-------3-------2--|
G|--------2-----------2-------0--|----0-------0-------0-------2--|
D|0-------0-------0-------0------|0-------0-------0-------0---2--|
A|-------------------------------|2-------2-------2-------2------|
E|-------------------------------|3-------3-------3-------3------|
      it      seems   like    years       since       been    clear
                                              it's


[Chorus]

(02:26)

e|------- ------- ------- -------|------- 2---0-- ----2-- -------|
B|--------2-------2-------2------|--------3-------------------3--|
G|--------2-------2-------2------|--------2-------------------2--|
D|--------2-------2-------2------|0-------0-------0-------0------|
A|0-------0-------0-------0------|-------------------------------|
E|-------------------------------|-------------------------------|
                                          Here        the     sun
                                              comes



e|------- 2------ 0---2-- -------|------- 2---0-- ----2-- -------|
B|--------3---3------------------|--------0---0-------0-------3--|
G|----2---2----------------------|--------0---0-------0-------1--|
D|0-------0-------0-------0------|0-------0-------0-------0---2--|
A|-------------------------------|2-------2-------2-------2---2--|
E|-------------------------------|3-------3-------3-------3------|
          Doo doo doo doo                 Here        the     sun
                                              comes



e|------- ------- ------- -------|----2-- ----0-- ------- -------|
B|--------3-------3-------3------|----3-------3-------0----------|
G|--------1-------1-------1------|----2-------2-------2-------2-/|
D|--------2-------2-------2------|0-------0-------0-------0------|
A|--------2-------2-------2------|-------------------------------|
E|0-------0-------0-------0------|-------------------------------|
              I       say             it's    allright




e|------- 0------ ----0-- -------|0------ ----0-- ------- -------|
B|----3-----------3-----------3--|--------3-------3---2---0------|
G|4-----------2-----------0------|----2-----------2-------2---2--|
D|-------------------------------|-------------------------------|
A|-------------------------------|-------------------------------|
E|-------------------------------|-------------------------------|



[02:39]

e|------- 2---0-- ----2-- -------|------- 2------ 0---2-- -------|
B|--------3-----------3-------3--|--------3---3------------------|
G|--------2-------------------2--|----2---2----------------------|
D|0-------0-------0-------0------|0-------0-------0-------0------|
A|-------------------------------|-------------------------------|
E|-------------------------------|-------------------------------|
          Here        the     sun         Doo doo doo doo
              comes



e|------- 2---0-- ----2-- -------|------- ------- ------- -------|
B|--------0---0-------0-------3--|----3---3-------3-------3------|
G|--------0---0-------0-------1--|----1---1-------1-------1------|
D|0-------0-------0-------0---2--|----2---2-------2-------2------|
A|2-------2-------2-------2---2--|----2---2-------2-------2------|
E|3-------3-------3-------3------|0-------0-------0-------0------|
          Here        the     sun
              comes



e|----2-- ----0-- ------- -------|------- 0------ ----0-- -------|
B|----3-------3-------3----------|----3-----------3-----------3--|
G|----2-------2-------2-------2-/|4-----------2-----------0------|
D|0-------0-------0-------0------|-------------------------------|
A|-------------------------------|-------------------------------|
E|-------------------------------|-------------------------------|
      It's    allright


[02:53]

e|0------ ----0-- ------- -------|------- 2------ 0------ -------|
B|--------3-------3---2---0------|--------3---3---3---3----------|
G|----2-----------2-------2---2--|--------2-------2-----------2-/|
D|-------------------------------|0-------0-------0-------0------|
A|-------------------------------|-------------------------------|
E|-------------------------------|-------------------------------|
                                          It's 
                                              allright



e|------- 0------ ----0-- -------|0------ ----0-- ------- -------|
B|----3-----------3-----------3--|--------3-------3---2---0------|
G|4-----------2-----------0------|----2-----------2-------2---2--|
D|-------------------------------|-------------------------------|
A|-------------------------------|----------------0-------0------|
E|-------------------------------|-------------------------------|




  F/D         C           G                   D¨¨¨¨¨¨¨¨¨¨¨¨¨¨¨¨¨¨
e|------- ------- ------- -------|------- ----2-- ------- -------|
B|--------1----------------------|------------3------------------|
G|----2---------------0----------|0-----------2------------------|
D|0---------------2-----------0--|------------0------------------|
A|------------3-----------2------|--------2----------------------|
E|-------------------------------|----3--------------------------|

************************************

| /  Slide up

************************************
Suggest correction
comments
print report bad tab
52 comments total. Showing first comments.
+4 reply
johnc27 71 Mar 09, 2005 07:00 PM

nice tab, one of the most detailed i've seen, which made it hard for me to understand, but very very good

+12 reply
PJVILL 8,472 Oct 20, 2005 09:01 PM

Sorry it is too much for some people, but I tabbed the song, as all the rest, measure by measure and that's exactly what I heard. It can be played quite right without so much detail, but the information is there for anyone to see.

+4 reply
Jesse Nouveau 10 Jan 27, 2006 03:37 PM

nofx_2525, possibly because you neglected to use the capo?

guest
You may want to rate the tab now too:
select rating
Wanna post a correction for this tab? Suggest correction