Oops, an error
Loading. Please wait.
We have an official Here Comes The Sun tab made by UG professional guitarists. Check out the tab »
×

Here Comes The Sun tab

571 views 123 this week
no commentswrite comment
1 2 3 4 5
1 last vote to show rating
add to favorites
×
Save as Personal and add changes to this tab that will be seen only by you. Learn more ›
×
You can save this tab as Personal to edit and correct it or add notes. All changes will be seen only by you. Learn more »
launch autoscroll
font size
0
reset
how to read this tab
guitar tuner
backing track
0:00
0:00
edit
Autoscroll
slow
fast
+/-
esc
set tempo
stop
About this tab version
Previous versions are missing many notes, are too much simplified and sometimes incorrect. Was this info helpful? Yes No
The song is played with capo on the 7th fret but the guitar is also overtuned (or sped up). Set your
tuner to A = 449 Hz and it will sound right!

The song is played dynamicly with some picking with lower volume while others are played with more force.
Listen to the song to get the right feeling! The ending with prefix I, II, III, is for the first, second
or third verse.

E7 : 020130


[Intro]
    D                                      G                          A7
e|--2-----0--2--------------2--0-----------------------0------------------------------0--------|
B|--3--3-----------3-----------------3-----0-----3-----0-----3-----0--2--0--2--3~----(2)----2--|
G|--2-----------------------------------------------------------------0-----0-----0------0--0--|
D|--0-----------0-----0--0--------0-----0-----------------------------2-----2-----2------2--2--|
A|--------------------------------------0-h2--2-----2-----2-----2-----0-----0-----0------0-----|
E|--------------------------------------0-h3--3-----3-----3-----3------------------------------|

    D                                       G                         A7
e|------2-----0--2--------------2--0-----------------2-----0--------------|
B|--3------3-----------3-----------------3-----0-----------------3----2~--|
G|--2---------------------------------------0-------------------------0~--|
D|--0---------------0-----0--0--------0-----0-----0-----0-----0-----0-2~--|
A|------------------------------------------x-----x-----x-----x-----x-0~--|
E|------------------------------------------3-----3-----3-----3-----3-----|

    D                                    Gmaj7              E7              D
e|------2--0---2--------2-----0--2-----------2--0---2---------------------------2--0------|
B|--3--------------3-------3-------(3)3--0---------------3--3-3-3---3---3---3----------3--|
G|--2-------------------------------2-2--0-------------0----1-1-1---1---1---2-------------|
D|--0-------------------------------0----0-------------0----0-0-0---0---0---0-------------|
A|---------------------------------------2-------------2----2-2-2---2---2-----------------|
E|---------------------------------------3-------------3----0-0-0---0---0-----------------|
        Here comes the sun, du-du-du-du.     Here comes the sun, and I say,     it's all right.

[Solo 1]
e|-----------0--------0--------0--------0--------------|
B|--------3--------3--------3--------3-----3-p2--------|
G|--2-/4--------2--------0--------2--------------4-p2--|
D|-----------------------------------------------------|
A|-----------------------------------------------------|
E|-----------------------------------------------------|

[Verses 1-3]
    D                                      G                          A7
e|--2--2-----0--2--------------2--0-----------------------0------------------------------0--------|
B|--3--3--3-----------3-----------------3-----0-----3-----0-----3-----0--2--0--2--3~----(2)----2--|
G|--2--2-----------------------------------------------------------------0-----0-----0------0--0--|
D|--0--0-----------0-----0--0--------0-----0-----------------------------2-----2-----2------2--2--|
A|-----------------------------------------0-h2--2-----2-----2-----2-----0-----0-----0------0-----|
E|-----------------------------------------0-h3--3-----3-----3-----3------------------------------|
       Little darling,       it's been  a    hard, cold, lone-ly    winter.
       Little darling,       the  smiles,  returning      to    the faces.
       Little darling,       I    feel  that  ice   is    slowly    melting.

    D                                       G
e|------2-----0--2--------------2--0-----------------2-----0----------|
B|--3------3-----------3-----------------3-----0-----------------3----|
G|--2---------------------------------------0-------------------------|
D|--0---------------0-----0--0--------0-----0-----0-----0-----0-----0-|
A|------------------------------------------x-----x-----x-----x-----x-|
E|------------------------------------------3-----3-----3-----3-----3-|
        Little darling,       it feels like    years, since it's been here.
        Little darling,       it seems like    years, since it's been here.
        Little darling,       it seems like    years, since it's been clear.

         A7                                 A7                 A7sus4
e| I   |--------------------0--------| II |-----------------------0-----|               
B| III |-0--2--0--2--3~----(2)----2--|    |-0------------------3-----3--|               
G|     |----0-----0-----0------0--0--|    |-----------------------------|               
D|     |----2-----2-----2------2--2--|    |-----------------------------|               
A|     |----0-----0-----0------0-----|    |-----------------------------|               
E|     |-----------------------------|    |-----------------------------|               
                
[Chorus 1-3]
    D                                    Gmaj7              E7              D
e|------2--0---2--------2-----0--2-----------2--0---2---------------------------2--0------|
B|--3--------------3-------3-------(3)3--0---------------3--3-3-3---3---3---3----------3--|
G|--2-------------------------------2-2--0-------------0----1-1-1---1---1---2-------------|
D|--0-------------------------------0----0-------------0----0-0-0---0---0---0-------------|
A|---------------------------------------2-------------2----2-2-2---2---2-----------------|
E|---------------------------------------3-------------3----0-0-0---0---0-----------------|
        Here comes the sun, du-du-du-du.     Here comes the sun, and I say,     it's all right.
        Here comes the sun, du-du-du-du.     Here comes the sun, and I say,     it's all right.
        Here comes the sun, du-du-du-du.     Here comes the sun, and I say,     it's all right.

[Solo 1]

[Solo ending]
    D                A7
e|------2-----0--2----------------------0--------|
B|--3------3---------0--2--0--2--3~----(2)----2--|
G|--2-------------------0-----0-----0------0--0--|
D|--0-------------------2-----2-----2------2--2--|
A|----------------------0-----0-----0------0-----|
E|-----------------------------------------------|

[Verse 2]

[Chorus 2]

[Solo 1]

[Solo ending]
    D                A7
e|------2-----0--2-----------|
B|--3------3---------0--2--2-|
G|--2-------------------0--0-|
D|--0-------------------2--2-|
A|----------------------0--0-|
E|---------------------------|

[Solo 2]
             F        C        G/B     G      D              A7
e|-------------------------------------------(2)---------------------|
B|-----------------1-------------------------(3)------------(0)-2--2-|
G|--------------2-----------0--------0--------2-----------------0--0-|
D|--------2--3-----------2--------0-----------0-----------------2--2-|
A|--0--4--------------3--------2-----------2--------------------0--0-|
E|--------------------------------------3----------------------------|
             [no lyrics]
             Sun(!)  Sun.     Sun.      Here it comes.

             F        C        G/B     G      D              A7
e|-------------------------------------------(2)-2-----0--2----------|
B|-----------------1-------------------------(3)-3--3--------2--0--2-|
G|--------------2-----------0--------0--------2--2-----------0--0--0-|
D|--------2--3-----------2--------0-----------0--------------2-----2-|
A|--0--4--------------3--------2-----------2-----------------------0-|
E|--------------------------------------3----------------------------|
             Sun(!)  Sun.     Sun.      Here it comes.
             Sun(!)  Sun.     Sun.      Here it comes.
             Sun(!)  Sun.     Sun.      Here it comes.

             F        C        G/B     G      D              
e|-------------------------------------------(2)-2-----0--2--|
B|-----------------1-------------------------(3)-3--3--------|
G|--------------2-----------0--------0--------2--2-----------|
D|--------2--3-----------2--------0-----------0--------------|
A|--0--4--------------3--------2-----------2-----------------|
E|--------------------------------------3--------------------|
             Sun(!)  Sun.     Sun.      Here it comes.

    A7               A7sus4               A7                  A7
e|-------------------0--------------------0----------------0--3---3--3--3--3--5--5--5--|
B|--2---2---2--0--2--3---3---3---3--2--3--2--2---2---2--3-----2---2--2--2--2--2--2--2--|
G|--0---0---0--------0---0---0---0--------0--0---0---0--------0---0--0--0--0--2--2--2--|
D|--2---2---2------------2---2---2-----------2---2---2------------2--2--2--2--2--2--2--|
A|--0---0---0------------0---0---0-----------0---0---0------------0--0--0--0-----------|
E|-------------------------------------------------------------------------------------|

[Verse 3]

[Chorus 3]

[Solo 1]

[Chorus 4]
    D                                    Gmaj7              E7*             D
e|------2--0---2--------2-----0--2-----------2--0---2---------------------------2--0------|
B|--3--------------3-------3-------(3)3--0---------------3--3-3-3---3---3---3----------3--|
G|--2-------------------------------2-2--0-------------0----1-1-1---1---1---2-------------|
D|--0-------------------------------0----0-------------0----0-0-0---0---0---0-------------|
A|---------------------------------------2-------------2----2-2-2---2---2-----------------|
E|---------------------------------------3-------------3----0-0-0---0---0-----------------|
        Here comes the sun, du-du-du-du.     Here comes the sun.                It's all right.

[Solo 1]

[Chorus 4 ending]
    D
e|------2--0------|
B|--3----------3--|
G|--2-------------|
D|--0-------------|
A|----------------|
E|----------------|
        It's all right.

[Solo 1]

[Outro]
    F        C        G/B      G      D
e|------------------------------------2~--|
B|--------1---------------------------3~--|
G|-----2-----------0--------0---------2~--|
D|--3-----------2--------0------------0~--|
A|-----------3--------2------------2------|
E|-----------------------------3----------|

***********************************
| ~   Ring out
| x   Dead note
| h   Hammer-on
| p   Pull-off
| /   Slide up
| I   First verse
| II  Second verse
| III Third verse
***********************************

            
            
Suggest correction
Creating personal tab
Creating personal tab
You can edit any tab online and save it as your Personal.

You can edit, replace or remove any tab part or add personal notes – all changes will be seen only by you.

Personal tabs can be accessed anytime from any device, even offline.
Learn more »
Give kudos to tab author, rate the tab!
1 2 3 4 5
comments
print report bad tab
guest
You may want to rate the tab now too:
select rating
Wanna post a correction for this tab? Suggest correction