Oops, an error
Loading. Please wait.
We have an official Hey Bulldog tab made by UG professional guitarists. Check out the tab »
×
19,816 views 27 this week
5 commentsread comments
1 2 3 4 5
x 7
add to favorites
launch autoscroll
font size
0
reset
guitar tuner
backing track
0:00
0:00
×
Best way to learn
"Hey Bulldog"
Autoscroll
slow
fast
+/-
esc
set tempo
stop
Suprised to see ther wasn't a tab for this great song already.
the rythm is tricky so you should listen to the song for timing, this
bass line plays a lead role so it must be strong and acurate.
song is broken into small parts to help you understand better,
here it goes...

verse and solo

G------------------------------------------------
D------------------------------------------------
A--------7-8-9--------9-8-7----------------------
E-77-10-7-7----77-10-7-7-------------------------

G--------------------------------------------------
D---99999999776---------7h97h9---------------------
A--------------9-9-99999---------------------------
E-77-----------------------------------------------

G------------------------9-----------------------
D-99999999776------7-7\11------------------------
A------------9-99-9-9----------------------------
E------------------------------------------------

G------------------------------------------------
D-77-7---44-4------------6-----------------------
A---7------4---777-79-79--7----------------------
E------------------------------------------------

G----------------44------------------------------
D-77-7-44-4----44--------------------------------
A---7----4-3-22----2-----------------------------
E------------------------------------------------

chorus

G----------------------------------------------------------
D------------------------------------------------9999------
A------------------------------5\7-5\7-5\7-5\777-----7777--
E-5\77--5\77--5\77-5\7-5\7-5\7-----------------------------
and back to the top!

have fun with this great song

tabbed by Chris
leroythebassman@hotmail.com
Suggest correction
comments
print report bad tab
5 comments total. Showing first comments.
0 reply
Incubus_SCIENCE 377 Jan 07, 2006 07:58 AM

Ending / outro anyone?

+1 reply
PrincessJoe 291 Feb 22, 2008 03:38 AM

outro
Hey bulldog!!!
G------------------------
D------------------------
A-----5-7-8-9-----0-4-3-2
E-7-7----------2-2-------

-1 reply
Moses L. 30 Mar 01, 2008 08:21 AM

the intro and outro are on a higher octave than the your tabs.. and the rest really blows. your tabs are along the lines of the actualy bass, but for the most part, these tabs are horrible. the bass is hard to get in this song, but i'm gonna try to get em right and i'll have em posted in an hour or so.

guest
You may want to rate the tab now too:
select rating
Wanna post a correction for this tab? Suggest correction