Oops, an error
Loading. Please wait.

Hey Jude Bass

version 1
version 1
97,236 views 105 this week
4 commentsread comments
1 2 3 4 5
x 38
add to favorites
launch autoscroll
font size
0
reset
guitar tuner
backing track
0:00
0:00
×
Best way to learn
"Hey Jude"
Autoscroll
slow
fast
+/-
esc
set tempo
stop
The Beatles - Hey Jude

Part A

       ......feel the pain hey jude refrain                                           
G|------------------|----------------------|----------------------|----------------------|
D|*-------------18x*|----------------------|----------------------|----------------------|
A|*----------------*|----------------------|----------------------|------------3----1----|
E|------------------|--6----6----5----5----|--3----3----1----1----|--0----3--------------|


                                                                                                       
G|--------------------------|--------------------------|
D|--------------------------|--------------------------|
A|--------------------------|--------------------------|
E|--1--1--1--1--1--1--1--1--|--1--1--1--1--1--1--1--1--|


   ..fool who plays it cool                                                                             
G|----------------------|----------------------|----------------------|--------------------------|
D|----------------------|----------------------|----------------------|--------------------------|
A|----------------------|----------------------|------------3---------|--------------------------|
E|--6-6--6----5----5----|--3----3----1----1----|--0------3-------3----|--1--1--1--1--1--1--1--1--|


                                                                                          
G|--------------------------|--------------------|------------------|
D|--------------------------|--------------------|------------------|
A|--------------------------|--------------------|------------------|
E|--1--1--1--1--8--8--8--8--|--8--8--8--8--7h8---|------------------|


  Part B
  Hey Jude ..                                                                                             
G|----------------------|----------------------|------------0-----------|----------------------|
D|--3----3----3----3----|----------------------|---------2--------0--2--|--3-------------------|
A|----------------------|--3---------3---------|--3------------3--------|---------0--3---------|
E|----------------------|---------3-------3----|------------------------|-----------------1----|


G|----------------------|----------------------|----------------------||
D|----------------------|----------------------|----------------------||
A|--1-------------3--1--|---------0--3---------|--3-3-------3---------||
E|-----------3----------|--1--------------1----|---------3-------3----||


G|--------------------------|--------------------------|
D|--------------------------|--------------------------|
A|--------------------------|-----------------------0--|
E|--1--1--1--1--1--1--1--1--|--1--1--1--1--1--1--3-----|
Part C
Hey Jude ....                                                                                              
----------------------|----------------------|------------------------|----------------------|
----------------------|----------------------|------------------------|----------------------|
------------0----3----|--3---------3---------|--3------3--3--1--0-----|---------0--3---------|
--1------1------------|---------3-------3----|---------------------3--|--1--------------1----|


                                                                                                 
G|-----------------------|----------------------|----------------------||
D|-----------------------|----------------------|----------------------||
A|--1---------1----3--1--|---------0--3---------|--3---------3----3----||
E|---------1-------------|--1--------------1----|---------3------------||

G|--------------------------|-----------------------|
D|--------------------------|-----------------------|
A|--------------------------|-----------------------|
E|--1--1--1--1--1--1--1--1--|--1--1--1--1--1--------|

Part D  repeat until end

  ..Da da da dadadada....                                                                              
G|--------------------------|--------------------------|--------------------------|-------------------------||
D|*-------------------------|--1--1--1--1--1--1--1--1--|--------------------------|------------------------*||
A|*-------------------------|--------------------------|--1--1--1--1--1--1--1--1--|------------------------*||
E|--1--1--1--1--1--1--1--1--|--------------------------|--------------------------|--1--1--1--1--1--1--1--1-||

Playorder: A B A C D



************************************

| h  Hammer-on

************************************
Suggest correction
comments
print report bad tab
4 comments total. Showing first comments.
0 reply
M1 Garand 10 Aug 08, 2007 09:21 AM

This is really good! Way 2 Go!

+12 reply
benji99 10 Feb 29, 2008 02:23 PM

ITS NAAA NA NA NANANANANA NANANANA not DADADADDADADA

+1 reply
JerWhit 10 Nov 23, 2008 07:59 PM

Sounds good!

guest
You may want to rate the tab now too:
select rating
Wanna post a correction for this tab? Suggest correction