Oops, an error
Loading. Please wait.

Hey Jude Tab

version 4
version 4
70,807 views 51 this week
2 commentsread comments
1 2 3 4 5
accurate
x 7
add to favorites
launch autoscroll
font size
0
reset
how to read this tab
guitar tuner
Tab Pro tools
  • play this tab
  • loop segment
  • change instrument
  • show fretboard
  • metronome
×
Best way to learn
"Hey Jude"
Autoscroll
slow
fast
+/-
esc
set tempo
stop
Contributor
Artist: Beatles
Song: Hey Jude

                            
tune down 1/2 step

4/4                   F                C   
SRUM,           Hey Jude dont make it bad      
UP DOWN 	            C7                      F  
UP DOWN         take your  sad   song  and make it better
	         B/A                           F     
		Remember to let her into your heart 
		              C                F
	        then you can start to make it better

		      F           C         
		Hey Jude dont be afraid
		          C7                    F
		you were made to go out and get her
		     B/A                            F            
		The minute you let her under your skin
		           C                F  
		then you begin to make it better


	         DM                       B/A             Gm     
		And anytime you feel the pain hey jude refrain
		                C                F  
		dont carry the world upon your shoulders 
		 DM                          B/A               Gm   
		For well you know that its a fool who plays it cool
		               C               F
		by making his world  a little colder

  
		 F                C
		Na Na Na Na Na   Na   Na    Na    Na 


		      F               C
		Hey Jude dont let me down 
		          C7                     F
		You have found  her  now go and get her
		   B/A                       F
		Remember to let her into you heart 
		              C                F   
		then you can start to make it better


		 DM                      B/A         Gm
		So let it out and let it in hey Jude begin 
		                C                F        
		dont carry the world upon your shoulders 
		 DM                     B/A                Gm
		dont you know its jus a fool hey jude your cool 
 		                   C                F
		The movement you need is on your shoulders


		 F                C
		Na Na Na Na Na   Na  Na   Na    Na



		     F                C   
		Hey Jude dont make it bad      
		           C7                       F
		take your  sad   song  and make it better
		 B/A                           F     
		Remember to let her into your heart
		              C                     F
		 then you'll can start to make it better better better better 


		F              
		Na na na na na na na
		B/A
		Na na na na
		     F
		Hey Jude     x12


Chords  F      C     C7   B/A    DM    GM
       -1-    -0-   -0-   -X-   -1-    -3-
       -1-    -1-   -1-   -3-   -3-    -3-
       -2-    -0-   -3-   -3-   -2-    -3-
       -3-    -2-   -2-   -3-   -X-    -3-
       -3-    -3-   -3-   -X-   -X-    -5-
       -1-    -X-   -X-   -X-   -X-    -3-


THE TAB FOR IT

e|-----------------------------------------------------------------------|
B|-3-0---0-3-5-----------------------------------------------------------|
G|------------2---2-4-5-12--12-11-7-9-7-5-4---7-9-9--9-14-12-11-12-9-7---|
D|-----------------------------------------------------------------------|
A|-----------------------------------------------------------------------|
E|-----------------------------------------------------------------------|

e|--------------------------------------------------------------|
B|--------------------------------------------------------------|
G|-0-2-4-9-7--7-5-4---------------------------------------------| X2
D|------------------4-5-----------------------------------------|
A|--------------------------------------------------------------|
E|--------------------------------------------------------------|


e|-----------------------------------------------------------------|
B|-----------------------------------------------------------------|
G|-5-10-8-7-5-5-3-7--10-7-10-3---10-7-5-3-5--7-5-3-2---------------|
D|---------------------------------------------------3-------------|  X2
A|-----------------------------------------------------------------|
E|-----------------------------------------------------------------|

e|-----------------------------------------------------------------------|
B|-----------------------------------------------------------------------|
G|-----------------------------------------------------------------------|
D|-3-7-10-12-12--14-15-17-17---------------------------------------------|
A|-----------------------------------------------------------------------|
E|-----------------------------------------------------------------------|


e|-----------------------------------------------------------------------|
B|-3-0---0-3-5-----------------------------------------------------------|
G|------------2---2-4-5-12--12-11-7-9-7-5-4---7-9-9--9-14-12-11-12-9-7---|
D|-----------------------------------------------------------------------|
A|-----------------------------------------------------------------------|
E|-----------------------------------------------------------------------|


e|-----------------------------------------------------------|
B|-----------------------------------------------------------|
G|-0-2-4-9-7--7-5-4------------------------------------------| X2
D|------------------4-5--------------------------------------|
A|-----------------------------------------------------------|
E|-----------------------------------------------------------|


e|-----------------------------------------------------------------|
B|-----------------------------------------------------------------|
G|-5-10-8-7-5-5-3-7--10-7-10-3---10-7-5-3-5--7-5-3-2---------------|
D|---------------------------------------------------3-------------|  [X2]
A|-----------------------------------------------------------------|
E|-----------------------------------------------------------------|

e|-----------------------------------------------------------------------|
B|-----------------------------------------------------------------------|
G|-----------------------------------------------------------------------|
D|-3-7-10-12-12--14-15-17-17---------------------------------------------|
A|-----------------------------------------------------------------------|
E|-----------------------------------------------------------------------|


e|-----------------------------------------------------------------------|
B|-3-0---0-3-5-----------------------------------------------------------|
G|------------2---2-4-5-12--12-11-7-9-7-5-4---7-9-9--9-14-12-11-12-9-7---|
D|-----------------------------------------------------------------------|
A|-----------------------------------------------------------------------|
E|-----------------------------------------------------------------------|

e|-------------------------------------------------------------|
B|-------------------------------------------------------------|
G|-0-2-4-9-7--7-5-4--------------------------------------------| X2
D|------------------4-5----------------------------------------|
A|-------------------------------------------------------------|
E|-------------------------------------------------------------|



e|------------------------------------------------------------------|
B|------------------------------------------------------------------|
G|----------12-10-12-10--12-10-12-10---7-5--------------------------|
D|-3--7--10---------------------------------------------------------| X12
A|------------------------------------------------------------------|
E|------------------------------------------------------------------|

by Gaetz Hammond  E MAIL khohio@netzero.com

comments
print report bad tab
2 comments total.
0 reply
dani.california wrote on November 29 2008, 07:49 pm

AWESOME 5 star*****

0 reply
M.Vengeance wrote on February 21 2009, 07:49 pm

B/A chord... i dont know it help me out?

I want to post or [tab]
guest
You may want to rate the tab now too:
select rating
Please do not post tabs as comments. Select "correction" instead!