Oops, an error
Loading. Please wait.

Honey Dont Bass Tab

version 1
version 1

Whole song

Interactive

3,499 views 6 this week
no commentswrite comment
1 2 3 4 5
please rate
add to favorites
launch autoscroll
font size
0
reset
guitar tuner
Tab Pro tools
  • play this tab
  • loop segment
  • change instrument
  • show fretboard
  • metronome
×
Best way to learn
"Honey Dont"
Autoscroll
slow
fast
+/-
esc
set tempo
stop
Contributor
-------------------------------------------------------------------------------
			     HONEY DON’T – The Beatles
-------------------------------------------------------------------------------
Tabbed by: Solstice

Fairly simple song, but it’s a lot of fun to play. Just work on timing.

Tuning:


(0:05)                      Well how come…
G|---------------------------------------------------------------------------|
D|--------------2------------------------------------------------------------|
A|--------2--4-----4--2------------------------------------------------------|
E|--0--4-----------------4--0------------------------------------------------|

    
G|---------------------------------------------------------------------------|
D|---------------------------------------------------------------------------|
A|-----3-----------------------------3---------------------------------------|
E|--0-----------------------------------0------------------------------------|

        
G|---------------------------------------------------------------------------|
D|-------------------------------------------------------2-----2-------------|
A|-----3-------------------------------------------2--4-----4----------------|
E|--0----------------------------------------0--4----------------------------|

    
G|---------------------------------------------------------------------------|
D|------------------------------0-----------------------0--------------------|
A|------------------------2--4-----4--2-----------2--4-----4--2--------------|
E|------------------0--4-----------------0--0--4-----------------0-----------|


G|--------------0------------------------------------------------------------|
D|--------2--4-----4--2--------------------0---------------------------------|
A|--0--4-----------------4--0--------2--4-----4--2---------------------------|
E|-----------------------------0--4-----------------4--0---------------------|
                                Well, I love you baby and you oughta know…

G|---------------------------------------------------------------------------|
D|--------------------2-----2------------------------------------------------|
A|--2--2--------2--4-----4---------------------------------------------------|
E|--------0--4---------------------------0-----------------------------------|

  

G|---------------------------------------------------------------------------|
D|---------------------------------------------------------------------------|
A|-----3-----------------------------3---------------------------------------|
E|--0-----------------------------------0------------------------------------|

        
G|---------------------------------------------------------------------------|
D|-------------------------------------------------------2-----2-------------|
A|-----3-------------------------------------------2--4-----4----------------|
E|--0----------------------------------------0--4----------------------------|

    
G|---------------------------------------------------------------------------|
D|------------------------------0-----------------------0--------------------|
A|------------------------2--4-----4--2-----------2--4-----4--2--------------|
E|------------------0--4-----------------0--0--4-----------------0-----------|


G|--------------0------------------------------------------------------------|
D|--------2--4-----4--2--------------------0---------------------------------|
A|--0--4-----------------4--0--------2--4-----4--2---------------------------|
E|-----------------------------0--4-----------------4--0---------------------|


              Ah, rock on George, one time for me.
              
G|---------------------------------------------------------------------------|
D|----------------------------------------------------2--2--2--2-2-2---------|
A|--2--2---------------------------------------------------------------------|
E|--------0------------------------------------------------------------------|


G|---------------------------------------------------------------------------|
D|--------------------2--2--2--2-2-2-----------------------------------------|
A|--3--3--3--3-3-3--------------------3--3-----------------------------------|
E|------------------------------------------7--7--5--4--2--0-----------------|

G|---------------------------------------------------------------------------|
D|---------------------------------2--4--------2--4--------------------------|
A|--------2--4--------2--4---0--4--------0--4--------------2--4--------2--4-- |
E|--0--4--------0--4---------------------------------0--4--------0--4--------|
                Well, sometimes I love you on a Saturday night…
G|---------------------------------------------------------------------------|
D|---------------------------------------------------------------------------|
A|---------------------------------------------------------------------------|
E|--7--7--5--4--2--0---------------------------------------------------------|


G|---------------------------------------------------------------------------|
D|---------------------------------------------------------------------------|
A|-----3-----------------------------3---------------------------------------|
E|--0-----------------------------------0------------------------------------|

        
G|---------------------------------------------------------------------------|
D|-------------------------------------------------------2-----2-------------|
A|-----3-------------------------------------------2--4-----4----------------|
E|--0----------------------------------------0--4----------------------------|

    
G|---------------------------------------------------------------------------|
D|------------------------------0-----------------------0--------------------|
A|------------------------2--4-----4--2-----------2--4-----4--2--------------|
E|------------------0--4-----------------0--0--4-----------------0-----------|


G|--------------0------------------------------------------------------------|
D|--------2--4-----4--2--------------------0---------------------------------|
A|--0--4-----------------4--0--------2--4-----4--2---------------------------|
E|-----------------------------0--4-----------------4--0---------------------|


              Ah, rock on George, for Ringo one time.
              
G|---------------------------------------------------------------------------|
D|----------------------------------------------------2--2--2--2-2-2---------|
A|--2--2---------------------------------------------------------------------|
E|--------0------------------------------------------------------------------|

                                                        Well, honey don’t.
G|---------------------------------------------------------------------------|
D|--------------------2--2--2--2-2-2-----------------------------------------|
A|--3--3--3--3-3-3--------------------3--3-----------------------------------|
E|------------------------------------------7--7--5--4--2--0-----------------|

G|---------------------------------------------------------------------------|
D|---------------------------------2--4--------2--4--------------------------|
A|--------2--4--------2--4---0--4--------0--4--------------2--4--------2--4-- |
E|--0--4--------0--4---------------------------------0--4--------0--4--------|


              
G|---------------------------------------------------------------------------|
D|---------------------------------------------------------------------------|
A|--2--2---------------------------------------------------------------------|
E|--------0--7--7--5--4--2--2--0--0------------------------------------------|


/  slide up
| \  slide down
| h  hammer-on
| p  pull-off
| ~  vibrato
| +  harmonic
| x  Mute note

=============================================================================
comments
We did not receive enough feedback on this tab! Please rate:
print report bad tab
1 2 3 4 5
I want to post or [tab]
guest
You may want to rate the tab now too:
select rating
Please do not post tabs as comments. Select "correction" instead!