Oops, an error
Loading. Please wait.

How Do You Do It bass

1,522 views 3 this week
1 commentread comment
1 2 3 4 5
1 last vote to show rating
add to favorites
×
Save as Personal and add changes to this tab that will be seen only by you. Learn more ›
×
You can save this tab as Personal to edit and correct it or add notes. All changes will be seen only by you. Learn more »
launch autoscroll
font size
0
reset
guitar tuner
edit
Autoscroll
slow
fast
+/-
esc
set tempo
stop
Author
How Do You Do It?
The Beatles
Written by Mitch Murray

Originally, this song was given to the Beatles to be their first hit single. 
They recorded it but they didn't like it, and released their own song "Love 
Me Do" instead. "How Do You Do It?" also became a big hit, recorded by Gerry 
and the Pacemakers.

Intro:
G|------- ------- ------- -------|------- ------- ------- -------|
D|-------------------------------|5------------------------------|
A|3---------------5--------------|--------3---------------5------|
E|-------------------------------|-------------------------------|


Verse:
G|------- ------- ------- -------|------- ------- ------- -------|
D|5-----------4------------------|7---------------------------4--|
A|----------------7-----------7--|----------------5-------7------|
E|-------------------------------|-------------------------------|
  How             do          you do,     what you do  to me,


G|------- ------- ------- -------|------- ------- ------- -------|
D|5------------------------------|7---------------------------4--|
A|----------------7-----------7--|----------------5-------7------|
E|-------------------------------|-------------------------------|
          I       wish I      knew,                       If  I


G|------- ------- ------- -------|------- ------- ------- -------|
D|5-------5----------------------|7---------------------------4--|
A|----------------7--------------|----------------5-------7------|
E|-------------------------------|-------------------------------|
  knew    how you do  it  to  me,             I'd do  it  to


G|------- ------- ------- -------|------- ------- ------- -------|
D|5------------------------------|5------------------------------|
A|--------3---------------5------|--------5---5-------5---5------|
E|-------------------------------|-------------------------------|
  you.

Verse:
G|------- ------- ------- -------|------- ------- ------- -------|
D|5------------------------------|7-------7-------------------4--|
A|----------------7--------------|----------------5---5---7------|
E|-------------------------------|-------------------------------|
  How             do          you do,     what you do  to me,


G|------- ------- ------- -------|------- ------- ------- -------|
D|5------------------------------|7-----------7---------------4--|
A|----------------7-----------7--|----------------5---5---7------|
E|-------------------------------|-------------------------------|
          I'm     feeling     blue,                       Wish I


G|------- ------- ------- -------|------- ------- ------- -------|
D|5-------5----------------------|7---------------------------4--|
A|----------------7-------7------|----------------5---5---7------|
E|-------------------------------|-------------------------------|
  knew    how you do  it  to  me,         but I   haven't a


G|------- ------- ------- -------|------- ------- ------- -------|
D|5------------------------------|5-------5---5-------5---5------|
A|--------3---------------5------|-------------------------------|
E|-------------------------------|-------------------------------|
  clue.                                                       You

Bridge:
G|------- ------- ------- -------|------- ------- ------- -------|
D|7-------7-------------------4--|5-------5----------------------|
A|----------------5-------7------|----------------7-------5------|
E|-------------------------------|-------------------------------|
  give    me  a   feeling in  my  heart,                  like an
                                      oo  -   la- la

G|------- ------- ------- -------|------- ------- ------- -------|
D|7-------7----------------------|5-------5---4------------------|
A|----------------5-------5------|----------------7-------5------|
E|-------------------------------|-------------------------------|
  arrow                   passing through                     Sup-
                                      it.

G|------- ------- ------- -------|------- ------- ------- -------|
D|7------------------------------|5-------5---4------------------|
A|----------------5--------------|----------------7-------5------|
E|-------------------------------|-------------------------------|
  pose    that    think   ve- ry  smart,                      but
              you     you're

G|------- ------- ------- -------|------- ------- ------- -------|
D|-------------------------------|-------------------------------|
A|-------------------------------|5-----------5-----------5------|
E|5-----------5-----------5------|-------------------------------|
  won't   you     tell    me  how         do  you do      it?

Verse:
G|------- ------- ------- -------|------- ------- ------- -------|
D|5-----------4------------------|7---------------------------4--|
A|----------------7-----------7--|----------------5-------7------|
E|-------------------------------|-------------------------------|
  How             do          you do,     what you do  to me,


G|------- ------- ------- -------|------- ------- ------- -------|
D|5------------------------------|7-------7-------------------4--|
A|----------------7--------------|----------------5-------7------|
E|-------------------------------|-------------------------------|
          I       wish I      knew,                       If  I


G|------- ------- ------- -------|------- ------- ------- -------|
D|5-----------4------------------|7---------------------------4--|
A|----------------7--------------|----------------5-------7------|
E|-------------------------------|-------------------------------|
  knew    how you do  it  to  me,             I'd do  it  to


G|------- ------- ------- -------|------- ------- ------- -------|
D|5------------------------------|5---------------------------4--|
A|--------3---------------5------|--------5---5-------5---7------|
E|-------------------------------|-------------------------------|
  you.

Verse (solo):
G|------- ------- ------- -------|------- ------- ------- -------|
D|5-----------4------------------|7-------7-------------------4--|
A|----------------7-------7------|----------------5-------7------|
E|-------------------------------|-------------------------------|



G|------- ------- ------- -------|------- ------- ------- -------|
D|5-------5---4------------------|7-------7-------------------4--|
A|----------------7-------7------|------------7---5-------7------|
E|-------------------------------|-------------------------------|



G|------- ------- ------- -------|------- ------- ------- -------|
D|5-----------4------------------|7-----------------------4------|
A|----------------7-------7------|----------------5--------------|
E|-------------------------------|-------------------------------|



G|------- ------- ------- -------|------- ------- ------- -------|
D|5------------------------------|5-------5---5-------5---5------|
A|--------3---------------5------|-------------------------------|
E|-------------------------------|-------------------------------|
                                                              You

Bridge:
G|------- ------- ------- -------|------- ------- ------- -------|
D|7-----------7---------------4--|5-------5---4------------------|
A|----------------5-------7------|----------------7-------5------|
E|-------------------------------|-------------------------------|
  give    me  a   feeling in  my  heart,                  like an
                                      oo  -   la- la

G|------- ------- ------- -------|------- ------- ------- -------|
D|7------------------------------|5-------5---4------------------|
A|----------------5--------------|----------------7-------5------|
E|-------------------------------|-------------------------------|
  arrow                   passing through                     Sup-
                                      it.

G|------- ------- ------- -------|------- ------- ------- -------|
D|7-------7-------------------4--|5-------5---4------------------|
A|----------------5-------7------|----------------7-------5------|
E|-------------------------------|-------------------------------|
  pose    that    think   ve- ry  smart,                      but
              you     you're

G|------- ------- ------- -------|------- ------- ------- -------|
D|-------------------------------|-------------------------------|
A|-------------------------------|5-----------5-----------5------|
E|5-----------5-----------5------|-------------------------------|
  won't   you     tell    me  how         do  you do      it?

Verse:
G|------- ------- ------- -------|------- ------- ------- -------|
D|5-----------4------------------|7---------------------------4--|
A|----------------7-----------7--|----------------5-------7------|
E|-------------------------------|-------------------------------|
  How             do          you do,     what you do  to me,


G|------- ------- ------- -------|------- ------- ------- -------|
D|5-----------4------------------|7---------------------------4--|
A|----------------7--------------|----------------5-------7------|
E|-------------------------------|-------------------------------|
          I       wish I      knew,                       Wish I


G|------- ------- ------- -------|------- ------- ------- -------|
D|5-------5----------------------|7-------7-------------------4--|
A|----------------7-------7------|----------------5-------7------|
E|-------------------------------|-------------------------------|
  knew    how you do  it  to  me,         but I   haven't a


G|------- ------- ------- -------|------- ------- ------- -------|
D|5------------------------------|5---------------------------4--|
A|--------3---------------5------|--------5---5-------5---7------|
E|-------------------------------|-------------------------------|
  clue.                                                   Wish I

Outro:
G|------- ------- ------- -------|------- ------- ------- -------|
D|5-----------4------------------|7------------------------------|
A|----------------7-----------7--|----------------5-------5---5--|
E|-------------------------------|-------------------------------|
  knew    how you do  it  to  me,         but I   haven't a


G|------- ------- ------- -------|------- ------- ------- -------|
D|5------------------------------|5---------------------------4--|
A|--------3---------------5------|--------5---5-------5---7------|
E|-------------------------------|-------------------------------|
  clue.                                                   Wish I


G|------- ------- ------- -------|------- ------- ------- -------|
D|5-----------4------------------|7------------------------------|
A|----------------7-----------7--|----------------5--------------|
E|-------------------------------|-------------------------------|
  knew    how you do  it  to  me,         but I   haven't a


G|------- ------- ------- -------|------- ------- ------- -------|
D|5------------------------------|5------------------------------|
A|--------3-----------5-------5--|-------------------------------|
E|-------------------------------|-------------------------------|
  clue.

Please e-mail me for any corrections, or write a comment.

            
            
Suggest correction
Creating personal tab
Creating personal tab
You can edit any tab online and save it as your Personal.

You can edit, replace or remove any tab part or add personal notes – all changes will be seen only by you.

Personal tabs can be accessed anytime from any device, even offline.
Learn more »
Give kudos to tab author, rate the tab!
1 2 3 4 5
comments
print report bad tab
1 comment total.
0 reply
bass69 5,068 Mar 13, 2010 03:23 PM

awesome, man... you are the greatest...

guest
You may want to rate the tab now too:
select rating
Wanna post a correction for this tab? Suggest correction