Oops, an error
Loading. Please wait.
We have an official I Am The Walrus tab made by UG professional guitarists. Check out the tab »
×
20,950 views 6 this week
2 commentsread comments
1 2 3 4 5
x 5
add to favorites
×
Save as Personal and add changes to this tab that will be seen only by you. Learn more ›
×
You can save this tab as Personal to edit and correct it or add notes. All changes will be seen only by you. Learn more »
launch autoscroll
font size
0
reset
guitar tuner
backing track
0:00
0:00
edit
Autoscroll
slow
fast
+/-
esc
set tempo
stop
Author
Band - Beatles
Song - I Am The Walrus

Tuning : Standard

G|----------------------------------------------------------------|
D|--------------------------------------------------------8-----7-|
A|------------------------------------------------8-----8---------|
E|----------------------------------------------------------------|

G|----------------------------------------------------------------|
D|----------------------------------------------------------------|
A|6-------6-------6---------------6-------6-------6---------------|
E|----------------------------6-----------------------------------|

G|----------------------------------------------------------------|
D|--------------------------------------------------------6-------|
A|6-------6---------------6-------6-------6---6h--8-----6---------|
E|----------------------6-----6-----------------------------------|

G|----------------------------------------------------------------|
D|----------------------------------------------------------------|
A|----------------------------------------------------------------|
E|6---------------6---------------4---------------4---------------|

G|----------------------------------------------------------------|
D|------------------------------------------------4-------6-------|
A|4---------------4---------------6-------6-----------------------|
E|----------------------------------------------------------------|

G|----------------------------------------------------------------|
D|8-----------6---8---6---8-------6---------------6---------------|
A|----------------------------------------------------------------|
E|----------------------------------------------------------------|

G|----------------------------------------------------------------|
D|----------------------------------------------------------------|
A|4-------4-------4-----------2---4-------4-------4---2---4-------|
E|----------------------------------------------------------------|

G|----------------------------------------------------------------|
D|----------------------------------------------------------------|
A|6-------6-------6-----------4---6-------6-------6---4---6-------|
E|----------------------------------------------------------------|

G|----------------------------------------------------------------|
D|8---------------------------------------------------------------|
A|----------------------------------------------------------------|
E|----------------------------------------------------------------|

G|----------------------------------------------------------------|
D|8-------8-------8---------------6-------6-------6---------------|
A|----------------------------------------------------------------|
E|----------------------------------------------------------------|

G|----------------------------------------------------------------|
D|5-------5-------5---------------4---------------6---------------|
A|----------------------------------------------------------------|
E|----------------------------------------------------------------|

G|----------------------------------------------------------------|
D|8-------8-------8---------------6-------6-------6---------------|
A|----------------------------------------------------------------|
E|----------------------------------------------------------------|

G|----------------------------------------------------------------|
D|4-------4-------4-------4-------4-------4-------4-------4-------|
A|----------------------------------------------------------------|
E|----------------------------------------------------------------|

G|5-------5-------5-------5-------5---------------3-------5-------|
D|----------------------------------------5-----------------------|
A|----------------------------------------------------------------|
E|----------------------------------------------------------------|

G|5-------5-------5-------5-------5---------------5-------6-------|
D|----------------------------------------5-----------------------|
A|----------------------------------------------------------------|
E|----------------------------------------------------------------|

G|6-------6-------6---------------6---------------6---------------|
D|------------------------6---------------6---------------6-------|
A|----------------------------------------------------------------|
E|----------------------------------------------------------------|

G|8-------8-------8-------8-------6-------5---------------8-------|
D|------------------------------------------------8---------------|
A|----------------------------------------------------------------|
E|----------------------------------------------------------------|

G|----------------------------------------------------------------|
D|----------------------------------------------------------------|
A|8-------8-----------------------8-------8---------------8-------|
E|----------------8-------8-----------------------8---------------|

G|----------------------------------------------------------------|
D|8-------8-------8---------------6-------6-----------------------|
A|------------------------------------------------8---7---6-------|
E|----------------------------------------------------------------|

G|----------------------------------------------------------------|
D|------------------------------------------------4-------6-------|
A|4---------------4---------------6-------6-----------------------|
E|------------------------4---------------------------------------|

G|----------------------------------------------------------------|
D|8-------8-------8---------------6-------6-----------------------|
A|------------------------------------------------8---7---6-------|
E|----------------------------------------------------------------|

G|----------------------------------------------------------------|
D|----------------------------------------------------------------|
A|4-------4-----------------------4-------4---------------4-------|
E|----------------4-------4-----------------------4---------------|

G|----------------------------------------------------------------|
D|----------------------------------------------------------------|
A|6-------6-----------------------6-------6---------------6-------|
E|----------------6-------6-----------------------6---------------|

G|----------------------------------------------------------------|
D|8---------------8---8---8---8---8-------6-----------------------|
A|------------------------------------------------8---------------|
E|--------------------------------------------------------9-------|

G|----------------------------------------------------------------|
D|----------------------------------------------------------------|
A|6---------------6-------6-------6-------6-------6-------6-------|
E|----------------------------------------------------------------|

G|----------------------------------------------------------------|
D|----------------------------------------------------------------|
A|6-------6-----------6---6-------6---6---6---6---6---------------|
E|--------------------------------------------------------6-------|

G|----------------------------------------------------------------|
D|8-------8-------8-------8-----6-8-------8-------8-------6-------|
A|----------------------------------------------------------------|
E|----------------------------------------------------------------|

G|------------------------------------------------10------8-------|
D|----------------------------------------------------------------|
A|8-------8-------8-------8-------8-------8-----------------------|
E|----------------------------------------------------------------|

G|----------------------------------------------------------------|
D|----------------------------------------------------------------|
A|6-------6-------6-------6-----------3-------------------6-------|
E|--------------------------------6-------6---4---3---------------|

G|----------------------------------------------------------------|
D|----------------------------------------------------------------|
A|----------------------------------------------------------------|
E|6-------6-------6-------6-------6-------6-------4-------1-------|

G|----------------------------------------------------------------|
D|----------------------------------------------------------------|
A|----------------------------------------------------------------|
E|6---------------6---------------4---------------4---------------|

G|----------------------------------------------------------------|
D|----------------------------------------------------------------|
A|----------------------------------------------------------------|
E|3---------------3---------------2-------2-------4-------4-------|

G|----------------------------------------------------------------|
D|----------------------------------------------------------------|
A|--------------------------------1-------1-------1---------------|
E|4h6-----6-------6-------1---------------------------1---4-------|

G|----------------------------------------------------------------|
D|----------------------------------------------------------------|
A|----------------------------------------------------------------|
E|1-------2-------2-------2-------1---2---2-------2-------2-------|

G|----------------------------------------------------------------|
D|----------------------------------------------------------------|
A|3-------3-------3-------3-------3---------------1-------3-------|
E|----------------------------------------3-----------------------|

G|----------------------------------------------------------------|
D|----------------------------------------------------------------|
A|3-------3-------3-------3-------3-------3---------------3-------|
E|------------------------------------------------3---------------|

G|----------------------------------------------------------------|
D|----------------------------------------------------------------|
A|4-------4-----------------------4-------4-----------------------|
E|----------------4-------4-----------------------4-------4-------|

G|----------------------------------------------------------------|
D|----------------------------------------------------------------|
A|6-------6-----------------------6-------4-------3---------------|
E|----------------6-------6-------------------------------6-------|

G|----------------------------------------------------------------|
D|3---------------3---------------3---------------3---------------|
A|--------3---------------3---------------3---------------3-------|
E|----------------------------------------------------------------|

G|----------------------------------------------------------------|
D|------------------the bass takes a break....--------------------|
A|----------------------------------------------------------------|
E|----------------------------------------------------------------|

G|----------------------------------------------------------------|
D|----------------------------------------------------------------|
A|3-------3-------3-------3-------1-------1-------1-------1-------|
E|----------------------------------------------------------------|

G|----------------------------------------------------------------|
D|----------------------------------------------------------------|
A|----------------------------------------------------------------|
E|4-------4-------4-------4-------2---------------2-------2-------|

G|----------------------------------------------------------------|
D|----------------2/--3-------------------------------------------|
A|----------------------------------------------------------------|
E|1-------------------------------2-------2-------2-------2-------|

G|----------------------------------------------------------------|
D|----------------------------------------------------------------|
A|3-------3-----------------------3-------3---------------3-------|
E|----------------3-------3-----------------------3---------------|

G|----------------------------------------------------------------|
D|----------------------------------------------------------------|
A|3-------3-----------------------3---------------1-------3-------|
E|----------------3-------3---------------3-----------------------|

G|----------------------------------------------------------------|
D|----------------------------------------------------------------|
A|4-------4---------------4-------4---------------4---------------|
E|----------------4-----------------------4---------------4-------|

G|----------------------------------------------------------------|
D|1-------1---------------1-------1---------------1---------------|
A|----------------1-----------------------1---------------1-------|
E|----------------------------------------------------------------|

G|----------------------------------------------------------------|
D|3-------3-------3---------------3-------3-------3---------------|
A|------------------------3-------------------------------3-------|
E|----------------------------------------------------------------|

G|----------------------------------------------------------------|
D|----------------------------------------------------------------|
A|6-------6-------6---------------6-------6-------------6h8-------|
E|------------------------6-----------------------6---------------|

G|----------------------------------------------------------------|
D|8---------------8---------------6---------------6---------------|
A|----------------------------------------------------8---8---6---|
E|----------------------------------------------------------------|

G|----------------------------------------------------------------|
D|--------------------------------------------------------6-------|
A|4-------4-------4---------------6-------6-------8---------------|
E|----------------------------------------------------------------|

G|----------------------------------------------------------------|
D|----------------------------------------------------------------|
A|1---1---1-------1---1---1-------1---1---1-------1---1-----------|
E|--------------------------------------------------------1-------|

G|----------------------------------------------------------------|
D|----------------------------------------------------------------|
A|4-------4-----------------------4-------4---------------4-------|
E|----------------4-------4-----------------------4---------------|

G|----------------------------------------------------------------|
D|----------------------------------------------------------------|
A|6-------6-----------------------6-------6-------6h--7h--8-------|
E|----------------6---6---6---------------------------------------|

G|----------------------------------------------------------------|
D|----------------------------------------------------------------|
A|1---1---1-------1---1---1-------1---1---1-------1---------------|
E|--------------------------------------------------------1-------|

G|----------------------------------------------------------------|
D|8---8---8---------------8-------6-------6-----------------------|
A|----------------8-------------------------------8-------6-------|
E|----------------------------------------------------------------|

G|----------------------------------------------------------------|
D|5-------5-------5-------5-------4-------4-------6-------6-------|
A|----------------------------------------------------------------|
E|----------------------------------------------------------------|

G|----------------------------------------------------------------|
D|8-------8---8---8-------8-------8-------8---8---8-------6-------|
A|----------------------------------------------------------------|
E|----------------------------------------------------------------|

G|----------------------------------------------------------------|
D|4-------4-----------------------4-------4---------------4-------|
A|----------------4-------4-----------------------4---------------|
E|----------------------------------------------------------------|

G|5-------5-----------------------5---------------3-------5-------|
D|----------------5-------5---------------5-----------------------|
A|----------------------------------------------------------------|
E|----------------------------------------------------------------|

G|5-------5-----------------------5---------------3-------5-------|
D|----------------5-------5---------------5-----------------------|
A|----------------------------------------------------------------|
E|----------------------------------------------------------------|

G|6-------6-----------------------6-------6---------------6-------|
D|----------------6-------------------------------6---6-----------|
A|----------------------------------------------------------------|
E|----------------------------------------------------------------|

G|8-------8-----------------------8-------8---------------8-------|
D|----------------8-------------------------------8---8-----------|
A|----------------------------------------------------------------|
E|----------------------------------------------------------------|

G|----------------------------------------------------------------|
D|----------------------------------------------------------------|
A|8---------------8---------------8---------------8---------------|
E|--------8---------------8---------------8---------------8-------|

G|----------------------------------------------------------------|
D|----------------------------------------------------------------|
A|--------6-------6---------------6-------6---------------6-------|
E|6-----------------------6-----------------------6---------------|

G|----------------------------------------------------------------|
D|----------------------------------------------------------------|
A|4---------------4---------------4---------------4---------------|
E|--------4---------------4---------------4---------------4-------|

G|----------------------------------------------------------------|
D|----------------------------------------------------------------|
A|3---------------3---------------1-------3-----------------------|
E|--------3---------------3-------------------------------3-------|

G|----------------------------------------------------------------|
D|----------------------------------------------------------------|
A|1-------1-------1-------1-------1-------1-------1---------------|
E|--------------------------------------------------------1-------|

G|----------------------------------------------------------------|
D|----------------------------------------------------------------|
A|--------6-------6-------6-------6-------------------------------|
E|4---------------------------------------4-------4-------2-------|

G|----------------------------------------------------------------|
D|----------------------------------------------------------------|
A|--------------------------------4-------------------------------|
E|--------2-------2-------2---------------2-------2-------1-------|

G|----------------------------------------------------------------|
D|--------------------------------3---1---------------------------|
A|----------------------------------------3-------1---------------|
E|1---------------1-----------------------------------4---1-------|

G|----------------------------------------------------------------|
D|1-------1-------1-------1-------1-------1-------1---1---0-------|
A|----------------------------------------------------------------|
E|----------------------------------------------------------------|

G|----------------------------------------------------------------|
D|----------------------------------------3-------6---------------|
A|4-------4-------4-------4-------4---6-------------------4-------|
E|----------------------------------------------------------------|

G|----------------------------------------------------------------|
D|----------------------------------------------------------------|
A|3-------3-------3-------3-------3-------3-------3---1-----------|
E|--------------------------------------------------------3-------|

G|----------------------------------------------------------------|
D|----------------------------------------------------------------|
A|1-------1-------1-------0-------1-------1-------1-------1-------|
E|----------------------------------------------------------------|

G|----------------------------------------------------------------|
D|----------------------------------------------------------------|
A|0---------------------------------------------------------------|
E|--------4-------4-------4-------4-------4-------4-------4-------|

G|----------------------------------------------------------------|
D|----------------------------------------------------------------|
A|----------------------------------------------------------------|
E|2-------2-------2-------2-------2-------2-------2-------2-------|

G|----------------------------------------------------------------|
D|----------------------------1h--3-------------------------------|
A|--------3-------------------------------------------------------|
E|1---------------1-----------------------1-------1-------1-------|

G|----------------------------------------------------------------|
D|----------------------------------------------------------------|
A|6-------6-------6-------6-------6-------6-------6---4-----------|
E|--------------------------------------------------------6-------|

G|----------------------------------------------------------------|
D|----------------------------------------------------------------|
A|4-------4-------4-------4-------4---------------6-------4-------|
E|------------------------------------6---4-----------------------|

G|----------------------------------------------------------------|
D|----------------------------------------------------------------|
A|3-------3-------3-------3-------3-------3-------3-------3-------|
E|----------------------------------------------------------------|

G|----------------------------------------------------------------|
D|----------------------------------------------------------------|
A|1-------1-------1-------1-------1-------1-------1-------1-------|
E|----------------------------------------------------------------|

G|----------------------------------------------------------------|
D|----------------------------------------------------------------|
A|----------------------------------------------------------------|
E|4-------4-------4-----------------------4-------4-------2-------|

G|----------------------------------------------------------------|
D|----------------------------------------------------------------|
A|----------------------------------------------------------------|
E|2-------2-------2-----------------------2-------2---------------|

G|----------------------------------------------------------------|
D|------------------------------------------------3---------------|
A|----------------------------------------3-----------------------|
E|1-------1-------1-----------------------------------------------|

G|----------------------------------------------------------------|
D|1-------1-------1-----------------------1-------1---------------|
A|--------------------------------------------------------3-------|
E|----------------------------------------------------------------|

G|----------------------------------------------------------------|
D|----------------------------------------3-------6-------3-------|
A|4-------4-------4---------------4-------------------------------|
E|----------------------------------------------------------------|

G|------------------------2-------3-------2-----------------------|
D|--------2-------5-------------------------------5-------2-------|
A|3---------------------------------------------------------------|
E|----------------------------------------------------------------|

G|------------------------0-------1-------0-----------------------|
D|--------0-------3-------------------------------3-------0-------|
A|1---------------------------------------------------------------|
E|----------------------------------------------------------------|

G|----------------------------------------------------------------|
D|------------------------3-------4-------3-----------------------|
A|--------3-------6-------------------------------6-------3-------|
E|4---------------------------------------------------------------|

G|----------------------------------------------------------------|
D|----------------------------------------------------------------|
A|----------------1-------4-----------------------4---------------|
E|2-------2-----------------------2-------2---------------2-------|
Suggest correction
Creating personal tab
Creating personal tab
You can edit any tab online and save it as your Personal.

You can edit, replace or remove any tab part or add personal notes – all changes will be seen only by you.

Personal tabs can be accessed anytime from any device, even offline.
Learn more »
comments
print report bad tab
2 comments total.
+1 reply
Consi 37 Oct 23, 2006 12:13 PM

DUH! lyrics?

this is DISORGANIZED

+1 reply
GuitarBassDude 20 Jan 17, 2008 03:38 PM

i concur..... can't tell where i am

guest
You may want to rate the tab now too:
select rating
Wanna post a correction for this tab? Suggest correction