Oops, an error
Loading. Please wait.

I Am The Walrus Bass Tab

version 2
version 2

Whole song

Interactive

2,431 views 1 this week
no commentswrite comment
1 2 3 4 5
please rate
add to favorites
launch autoscroll
font size
0
reset
guitar tuner
Tab Pro tools
  • play this tab
  • loop segment
  • change instrument
  • show fretboard
  • metronome
×
Best way to learn
"I Am The Walrus"
Autoscroll
slow
fast
+/-
esc
set tempo
stop
Contributor
|-------------------------------|---------------------------|
|-0-0-0--0-0-0--0-0-0-0-0-0-4-5-|-7--7--5--5--------------5-|
|-------------------------------|-------------3--3--5-5-7---|
|-------------------------------|---------------------------|

|---------------------------|--------------------|
|-7--7--5--5----------------|---------------7----|
|-------------3-3-3--3-3-3--|-5-5-5--5-5-5-------|
|---------------------------|--------------------|

|-----------------------------|-------------------------------|
|-7-7-7--5-5-5--4-4-4--3-3-5--|-7-7-7--5-5-5--3-3-3-3-3-3-3-3-|
|-----------------------------|-------------------------------|
|-----------------------------|-------------------------------|

|---------------------------------|---------------------------------|
|---------------------------------|-------------------------------0-|
|-2-2-2-2-2---0-2-2-2-2-2-2---2-3-|-3-3-3---3---3---5-5-5-5-3-2-0---|
|-----------3---------------2-----|-------3---3---3-----------------|

|-----------------2-2-2---0-0-0---|-------------------------------|
|-2-2-----2-2---2-------2-------0-|--------------5-7--7---5-5-----|
|-----2-2-----2-------------------|-3--3---5-5-7--------7-----7-5-|
|---------------------------------|------3------------------------|

|---------------------------------|-------------------------------------|
|---------------------------------|-7-7-7-7-5---------------------------|
|-3-3-----3-3---3-5-5-----5-5---5-|-----------7-------------------------|
|-----3-3-----3-------5-5-----5---|-------------8-10-10-10-10-10-10-10--|

|-------------------------------------------------|
|-------------------------------------------------|
|-------------------------12-12-12-12-12-12-12-10-|
|-10-10-10-10-10-10-10-10-------------------------|

|------------------------------------------------|
|------------------------------------------------|
|----------------------0-------------------------|
|-12-12-12-12-12-12-12---10-10-10-10-10-10-10-10-|

|--------------------------------------|
|--------------------------------------|
|-12-12-12--10-10-10--9-9-9--8-8-10-10-|
|--------------------------------------|

|-----------------------------------------|
|-----------------------------------------|
|-12-12-12-12-10-10-10-10-8-8-8---8-8-8---|
|-------------------------------8-------8-|

|---------------------------------|---------------------------------|
|---------------------------------|-------------------------------0-|
|-------------0-2-2-2-2-2-2---0-2-|-3-3-3---3---3---5-5-5-5-3-2-0---|
|-7-7-7-7-7-3---------------2-----|-------3---3---3-----------------|

|---------------------|---------|-----4-4-2-2-|-0-0---------------|
|-2-2-----2-2---2-----|---------|-------------|-----3-3-2-2-3-3---|
|-----2-2-----2-------|---------|-------------|-------------------|
|---------------------|---------|-------------|-------------------|

|---------------------------------|---------------------------------|
|---------------------------------|---------------2-4-4-4-4-4-------|
|-2-2-2-2-2---0-2-2-2-2-2-2---0-2-|-3-3-3---3---3---------------5---|
|-----------3---------------2-----|-------3---3---------------5---5-|

|---------------------------------|--------------------------------|
|---------------------------------|-7-7-7---5-5-5----------------5-|
|-7-7-----7-7---7-5-5-----5-5---5-|-------7-------5-3--3---5-5-7---|
|-----7-7-----7-------5-5-----5---|----------------------3---------|

|--------------------------------|---------------------------------|
|-7--7---5-5---------------------|-----------------7-7-7-7-7-7-7-7-|
|------7-----7-5-3-3-----3-3---3-|-5-5-----5-5---5-----------------|
|--------------------3-3-----3---|-----5-5-----5-------------------|

|------------------------------|---------------------------------|
|-7-7-7--5-5-5--4-4-4--3-3-5-5-|-7-7-7-7-5-5-5-5-3-3-3---3-3-3---|
|------------------------------|-----------------------3-------3-|
|------------------------------|---------------------------------|

|---------------------------------|---------------------------------|
|---------------------------------|-------------------------------0-|
|-2-2-2-2-2---0-2-2-2-2-2-2---0-2-|-3-3-3---3---3---5-5-5-5-3-2-0---|
|-----------3---------------2-----|-------3---3---3-----------------|

|---------------------------------|---------------------------------|
|-2-2-2---2---2---0---0---0---0---|---------------------------------|
|-------2---2---2---0---0---0---0-|-3---3---3---3---2---2---2---2---|
|---------------------------------|---3---3---3---3---2---2---2---2-|

|-------------0--0--0--0--|-------------------------|
|-------------------------|-3--3--3--3--2--2--2--2--|
|-0--0--0--0--------------|-------------------------|
|-------------------------|-------------------------|

|-------------------------|-------------------------|
|-0--0--0--0--------------|-------------------------|
|-------------3--3--3--3--|-2--2--2--2--0--0--0--0--|
|-------------------------|-------------------------|

|-0--0--0--0--------------|-------------------------|
|-------------3--3--3--3--|-2--2--2--2--0--0--0--0--|
|-------------------------|-------------------------|
|-------------------------|-------------------------|

|-------------------------|-------------0--0--0--0--|
|-------------------------|-------------------------|
|-3--3--3--3--2--2--2--2--|-0--0--0--0--------------|
|-------------------------|-------------------------|

|-------------------------|-------------------------|
|-3--3--3--3--2--2--2--2--|-0--0--0--0--------------|
|-------------------------|-------------3--3--3--3--|
|-------------------------|-------------------------|

|-------------2--2--2--2--|-0--0--0--0--------------|
|-------------------------|-------------3--3--3--3--|
|-2--2--2--2--------------|-------------------------|
|-------------------------|-------------------------|

|-----------------*|
|-2--2--2--2------*|
|-----------------*|
|-----------------*|
comments
We did not receive enough feedback on this tab! Please rate:
print report bad tab
1 2 3 4 5
I want to post or [tab]
guest
You may want to rate the tab now too:
select rating
Please do not post tabs as comments. Select "correction" instead!