Oops, an error
Loading. Please wait.

I Am The Walrus Tab

version 2
version 2

Whole song

Interactive

20,806 views 1 this week
1 commentread comment
1 2 3 4 5
please rate
add to favorites
launch autoscroll
font size
0
reset
how to read this tab
guitar tuner
Tab Pro tools
  • play this tab
  • loop segment
  • change instrument
  • show fretboard
  • metronome
×
Best way to learn
"I Am The Walrus"
Autoscroll
slow
fast
+/-
esc
set tempo
stop
Contributor
Tabbers playing skills
advanced
----------------------------------------------------------------------------
                    I am the Walrus - The Beatles
----------------------------------------------------------------------------
Tabbed by: Dave S.
Email: Dlgibson@netscape.com

Tuning: Standard



Intro
e|--2-----2-----2-----2-----2-----2-----7-----------5----------------------|
B|--4-----4-----4-----4-----4-----4-----7-----------5-----------0-----0----|
G|-----4-----4-----4-----4-----4-----4--8-----8-----6-----6-----0--0-----0-|
D|--------------------------------------9--9-----9--7--7-----7--0----------|
A|--------------------------------------9-----------7----------------------|
E|--------------------------------------7-----------5-----------3----------|

e|--1-----------0----------------------------------------------------|
B|--1-----3-----0-----0-----0-----0-----2--3-----3-----3-----3-------|
G|--2-----------1-----1-----1-----1-----2--4-----4-----4-----4-------|
D|--3--3-----3--2--2-----2-----2-----2--------2-----2-----2-----2----|
A|--3-----------2----------------------------------------------------|
E|--1-----------0----------------------------------------------------|

e|-------------------------------------------------------|
B|-----------------------------1-----1-----1-----1-------|
G|--2-----2-----2-----2-----4--2-----2-----2-----2-------|
D|--4-----4-----4-----4-----5-----0-----0-----0-----0----|
A|-----5-----5-----5-----5-------------------------------|
E|-------------------------------------------------------|


Verse 1
e|--------------------------0-----0-----2-----2----------------------------|
B|--2-----2-----2-----2-----1-----1-----3-----3-----2-----2-----2-----2----|
G|--2-----2-----2-----2-----0-----0-----2-----2-----2-----2-----2-----2----|
D|--2-----2-----2-----2-----2-----2-----0-----0-----2-----2-----2-----2----|
A|--0-----0-----------------3-----3-----0-----0-----0-----0----------------|
E|--------------3-----3-----3-----3-----2-----2-----------------3-----3----|

e|--0-----0-----0-----0-----2-----2-----2-----2-----0----------------------|
B|--1-----1-----1-----1-----3-----3-----3-----3-----2----------------------|
G|--0-----0-----0-----0-----2-----2-----2-----2-----2----------------------|
D|--2-----2-----2-----2-----0-----0-----0-----0-----2----------------------|
A|--3-----3-----3-----3-----0-----0-----0-----0-----0----------------------|
E|--3-----3-----3-----3-----2-----2-----2-----2----------------------------|

e|--------------------------2-----------1--1----3--------------------------|
B|--2-----2-----2-----2-----3-----3-----1--1----3----2-----2-----2-----2---|
G|--2-----2-----2-----2-----2-----2-----2--2----0----2-----2-----2-----2---|
D|--2-----2-----2-----2-----0-----0-----3--3----0----2-----2-----2-----2---|
A|--0--0-----0--------------0-----------3--3----2----0--0-----0------------|
E|--------------3--3-----3--2--2-----2--1--1----3----------------3--3-----3|


e|--1----------------------------------------------------------------------|
B|--1-----------------------4----------------------------------------------|
G|--2-----2-----2-----2-----4-----4-----4-----4-----4-----4-----4-----4----|
D|--3-----3-----3-----3-----4-----4-----4-----4-----4-----4-----4-----4----|
A|--3-----3-----3-----3-----2--2-----2-----2-----2-----2-----2-----2-----2-|
E|--1--1-----1-----1-----1--2----------------------------------------------|


Chorus
e|-------------------------------------------------------------------------|
B|--5----------------------7----------------------9------------------------|
G|--5-----5-----5-----5----7-----7-----7-----7----9-----9-----9-----9------|
D|--5-----5-----5-----5----7-----7-----7-----7----9-----9-----9-----9------|
A|--3--3-----3-----3-------5--5-----5-----5-------7--7-----7-----7---------|
E|--3----------------------5----------------------0--0-----0-----0---------|


Verse 2
e|-----------------------------0-----0-----2-----2-------------------------|
B|--2-----2-----2-----2--------1-----1-----3-----3-----2-----2-----2-----2-|
G|--2-----2-----2-----2--------0-----0-----2-----2-----2-----2-----2-----2-|
D|--2-----2-----2-----2--------2-----2-----0-----0-----2-----2-----2-----2-|
A|--0--0-----0-----------------3-----3-----0-----0-----0-----0-------------|
E|--------------3--3-----3-----3-----3-----2-----2-----------------3-----3-|

e|--0-----0-----0-----0-----2-----2-----2-----2-----0----------------------|
B|--1-----1-----1-----1-----1-----1-----1-----1-----2----------------------|
G|--0-----0-----0-----0-----2-----2-----2-----2-----2----------------------|
D|--2-----2-----2-----2-----0-----0-----0-----0-----2----------------------|
A|--3-----3-----3-----3-----0-----0-----0-----0-----0----------------------|
E|--3-----3-----3-----3-----2-----2-----2-----2----------------------------|

e|-------------------------------------------------------------------------|
B|-------------------------------------------------------------------------|
G|--2------------------------2--2--2--2--2--2--2--2--2---------------------|
D|--4------------------------5--5--5--4--4--4--4--4--4---------------------|
A|-------------------------------------------------------------------------|
E|-------------------------------------------------------------------------|

e|--------------------------0-----0-----0-----0-----2-----2-----2-----2----|
B|--2-----2-----2-----2-----0-----0-----0-----0-----1-----1-----1-----1----|
G|--2-----2-----2-----2-----1-----1-----1-----1-----2-----2-----2-----2----|
D|--2-----2-----2-----2-----2-----2-----2-----2-----0-----0-----0-----0----|
A|--0-----0-----0-----0-----2-----2-----2-----2-----0-----0-----0-----0----|
E|--------------------------0-----0-----0-----0-----2-----2-----2-----2----|


(Repeat Verse 1)

Interlude
e|-------------2---7-----------10----7-------------------------------------|
B|--4----2--4--2-------0---------------------------------------------------|
G|--4----------2-------0---------------------------------------------------|
D|-------------------------7---------6-------------------------------------|
A|-------------------------8---------7-------------------------------------|
E|-------------------------------------------------------------------------|


Bridge
e|--7----------5----------3----------1----------0-----0-----1-----1--------|
B|--7----------5----------0----------1----------0-----0-----1-----1--------|
G|--8----------6----------0----------2----------1-----1-----2-----2--------|
D|--9----------7----------0----------3----------2-----2-----3-----3--------|
A|--9----------7----------2----------1----------2-----2-----3-----3--------|
E|--7----------5----------3----------1----------0-----0-----1-----1--------|

e|------------------------------------------------0-----1-----0-----0------|
B|4-----------------------------------------------1-----1-----1-----1------|
G|4-----4-----4-----4-----4-----4-----4-----4-----0-----0-----0-----0------|
D|4-----4-----4-----4-----4-----4-----4-----4-----2-----2-----2-----2------|
A|2--2-----2-----2-----2-----2-----2-----2-----2--3-----3-----3-----3------|
E|2-----------------------------------------------3-----3-----3-----3------|

e|-------------------------------------------------------------------------|
B|--7----------------------9----------------------7-----7-----7-----7------|
G|--7-----7-----7-----7----9-----9-----9-----9----7-----7-----7-----7------|
D|--7-----7-----7-----7----9-----9-----9-----9----7-----7-----7-----7------|
A|--5--5-----5-----5-------7--7-----7-----7-------5--5-----5-----5---------|
E|--5----------------------0--0-----0-----0-------5------------------------|



(Repeat Verse 1)

(Repeat Chorus)



e|-------------------------------------------------------------------------|
B|----9-----9-----9-----9----7-----7-----7-----7----5-----5-----5-----5----|
G|----9-----9-----9-----9----7-----7-----7-----7----5-----5-----5-----5----|
D|----9-----9-----9-----9----7-----7-----7-----7----5-----5-----5-----5----|
A|----7--7-----7-----7-------5--5-----5-----5-------3--3-----3-----3-------|
E|----0--0-----0-----0-------5----------------------3----------------------|

e|-------------------------|
B|----4-----4-----4-----4--|
G|----4-----4-----4-----4--|
D|----4-----4-----4-----4--|
A|----2--2-----2-----2-----|
E|----2--------------------|


Outro (Repeat 4x)
e|--------------------------------------------------1----------------------|
B|----2-----2-----2-----2----0-----0-----0-----0----1----------------------|
G|----2-----2-----2-----2----0-----0-----0-----0----2-----2-----2-----2----|
D|----2-----2-----2-----2----0-----0-----0-----0----3-----3-----3-----3----|
A|----0--0-----0-----0------------------------------3-----3-----3-----3----|
E|---------------------------3--3-----3-----3-------1--1-----1-----1-------|

e|--0--------------------------------------------------------------------|
B|--3-----3-----3-----3----7-----7-----7-----7----5-----5-----5-----5----|
G|--1-----1-----1-----1----7-----7-----7-----7----5-----5-----5-----5----|
D|--2-----2-----2-----2----7-----7-----7-----7----5-----5-----5-----5----|
A|--2----------------------5--5-----5-----5-------3--3-----3-----3-------|
E|--0--0-----0-----0-------5----------------------3----------------------|

e|-------------------------|
B|----4-----4-----4-----4--|
G|----4-----4-----4-----4--|
D|----4-----4-----4-----4--|
A|----2--2-----2-----2-----|
E|----2--------------------|


| /  slide up
| \  slide down
| h  hammer-on
| p  pull-off
| ~  vibrato
| +  harmonic
| x  Mute note
===========================================================================
comments
We did not receive enough feedback on this tab! Please rate:
print report bad tab
1 2 3 4 5
1 comment total.
0 reply
aig91 wrote on October 6 2007, 02:26 pm

Very nice, very nice. Sounds perfect to me.

I want to post or [tab]
guest
You may want to rate the tab now too:
select rating
Please do not post tabs as comments. Select "correction" instead!