Oops, an error
Loading. Please wait.

I Call Your Name Tab

version 2
version 2

Whole song

Interactive

2,766 views 1 this week
no commentswrite comment
1 2 3 4 5
please rate
add to favorites
launch autoscroll
font size
0
reset
how to read this tab
guitar tuner
Tab Pro tools
  • play this tab
  • loop segment
  • change instrument
  • show fretboard
  • metronome
×
Best way to learn
"I Call Your Name"
Autoscroll
slow
fast
+/-
esc
set tempo
stop
Contributor
I Call Your Name
The Beatles
Written by John Lennon and Paul McCartney; released on EP "Long Tall Sally"

A sad song, but one of my favourites.

Intro:
G|------- ------- ------- -------|------- ------- ------- -------|
D|-------------------------------|----------------------------2--|
A|-------------------------------|-------------------------------|
E|-------------------------------|-------------------------------|



G|------- ------- ------- -------|4------ 4---4-- 4---4-- 4---4--|
D|4-------4-------4---4---4---4--|-------------------------------|
A|-------------------------------|-------------------------------|
E|-------------------------------|-------------------------------|



G|------- ------- ------- -------|------- ------- ------- -------|
D|2-----------2---2-------2---2--|----------------------------0--|
A|-------------------------------|2-------2-------2-------2------|
E|-------------------------------|-------------------------------|
                                          I       call    your name

Verse:
G|------- ------- ------- -------|------- ------- ------- -------|
D|2-------2----------------------|2-------2-------2-------2------|
A|----------------2-------2------|----------------------------3--|
E|-------------------------------|-------------------------------|
                                          but     you're  not there


G|------- ------- ------- -------|------- ------- ------- -------|
D|-------------------------------|----------------------------3--|
A|4-------4-------4-------4---3--|4-------4-------4-------4------|
E|-------------------------------|-------------------------------|
                                          Was     I   to      blame


G|------- ------- ------- -------|------- ------- ------- -------|
D|4-------4-------4-------4---3--|4-------4-------4-------4------|
A|-------------------------------|----------------------------0--|
E|-------------------------------|-------------------------------|
                                          for     being   un- fair?


G|------- ------- ------- -------|------- ------- ------- -------|
D|-------------------------------|----------------------------1--|
A|2-------2-------2-------2---1--|2-------2-------2-------2------|
E|-------------------------------|-------------------------------|
                                              Oh, I       can't

Verse:
G|------- ------- ------- -------|------- ------- ------- -------|
D|2-------2-------2-------2---1--|2-------2-------2-------2------|
A|-------------------------------|----------------------------3--|
E|-------------------------------|-------------------------------|
  sleep at    night                       since   you've been gone


G|------- ------- ------- -------|------- ------- ------- -------|
D|--------------------3---6---3--|--------------------3---6---6--|
A|4-------4-------4--------------|4-------4-------4--------------|
E|-------------------------------|-------------------------------|
                                          I       ne- ver


G|------- ------- ------- -------|2------ 2------ 2---2-- 4---4--|
D|4-------4-------4---4---4---4--|-------------------------------|
A|-------------------------------|-------------------------------|
E|-------------------------------|-------------------------------|
  weep at     night                       I       can't go    on


G|------- ------- ------- -------|------- ------- ------- -------|
D|2-------2-------2---2-------2--|2-------2-------2-------2------|
A|------------------------2------|----------------------------2--|
E|-------------------------------|-------------------------------|
                                          Don't       I   can't
                                              you know
Bridge:
G|2---2-- ------- 2---2-- -------|2---2-- ------- 2---2-- -------|
D|-------------------------------|-------------------------------|
A|--------3---4-----------3---4--|--------3---4-----------3---4--|
E|-------------------------------|-------------------------------|
  take it?                                    I   don't   who can
                                                      know

G|------- ------- ------- -------|------- ------- ------- -------|
D|-------------------------------|-------------------------------|
A|4-------4-------4---4---4------|4-------4-------4---4---4------|
E|------------4---------------4--|------------4---------------4--|
                                              I'm not gon  -  na


G|------- ------- ------- -------|------- ------- ------- -------|
D|-------------------------------|-------------------------------|
A|-------------------------------|-------------------------------|
E|2-------2-------2-------2---0--|2-------2-------2-------2------|
  make                it                  I'm not that kind   of


G|------- ------- ------- -------|------- ------- ------- -------|
D|-------------------------------|-------------------------------|
A|3-------3-------3-------3------|2-------2-------2-------2------|
E|-------------------------------|-------------------------------|
  man                                         Oh, I       can't

Verse:
G|------- ------- ------- -------|------- ------- ------- -------|
D|2-------2-------------------1--|2-------2---------------2------|
A|----------------2-------2------|----------------2-----------3--|
E|-------------------------------|-------------------------------|
  sleep at    night                       but     just the    same


G|------- ------- ------- -------|------- ------- ------- -------|
D|-------------------------------|-------------------------------|
A|4-------4-------4---4-------3--|4-------4-------4---4---4---4--|
E|------------------------4------|-------------------------------|
                                          I       never


G|------- ------- ------- -------|2------ 2------ 2------ 2---4--|
D|4-------4-------4---4---4------|-------------------------------|
A|----------------------------4--|-------------------------------|
E|-------------------------------|-------------------------------|
  weep at     night                       I       call your   name!


G|------- ------- ------- -------|------- ------- ------- -------|
D|2-------2----------------------|2------------------------------|
A|----------------2-------2------|----2---2---2---2---2---2---2--|
E|-------------------------------|-------------------------------|


Verse (solo):
G|------ ------ ------ ------|------ ------ ------ ------|
D|2---2--2---2--2---2--2---2-|2---2--2---2--2---2--2-0---|
A|---------------------------|-------------------------2-|
E|---------------------------|---------------------------|



G|------ ------ ------ ------|------ ------ ------ ------|
D|---------------------------|---------------------------|
A|4------4-------------------|4------2-------------------|
E|--------------4------4-----|--------------4------0-----|



G|------ ------ ------ ------|------ ------ ------ ------|
D|---------------------------|---------------------------|
A|--------------4------4-----|-------------------------4-|
E|2------2-----------------4-|5------5------5------5-----|



G|------ ------ ------ ------|------ 4---4- ----4- 4---4-|
D|---------------------------|2---2---------2------------|
A|7------4------2------------|---------------------------|
E|---------------------3-----|---------------------------|
                                     Don't  know I can't
                                         you
Bridge:
G|2---2-- ------- 2---2-- -------|2---2-- ------- 2---2-- -------|
D|-------------------------------|-------------------------------|
A|--------3---4-----------3---4--|--------3---4-----------3---4--|
E|-------------------------------|-------------------------------|
  take it?                                    I   don't   who can
                                                      know

G|------- ------- ------- -------|------- ------- ------- -------|
D|-------------------------------|-------------------------------|
A|4-------4-------------------2--|4-------4----------------------|
E|------------4---4-------4------|------------4---4-------4---4--|
                                              I'm not gon  -  na


G|------- ------- ------- -------|------- ------- ------- -------|
D|4-------4-------4-------4---2--|4-------4-------4-------4------|
A|-------------------------------|-------------------------------|
E|-------------------------------|-------------------------------|
  make                it                  I'm not that kind   of


G|------- ------- ------- -------|------- ------- ------- -------|
D|-------------------------------|-------------------------------|
A|3-------3---3---3---3---3---3--|2-------2---2---2---2---2---2--|
E|-------------------------------|-------------------------------|
  man                                         Oh, I       can't

Verse:
G|------- ------- ------- -------|------- ------- ------- -------|
D|2-------2-------------------1--|2-------2----------------------|
A|----------------2-------2------|----------------2-------2---3--|
E|-------------------------------|-------------------------------|
  sleep at    night                       but     just the    same


G|------- ------- ------- -------|------- ------- ------- -------|
D|-------------------------------|--------------------3---6---3--|
A|4-------4-------------------3--|4-------4-------4--------------|
E|----------------4-------4------|-------------------------------|
                                          I       never


G|------- ------- ------- -------|2---2-- 2---2-- 2---2-- 2---2--|
D|4-------4-------4-------4------|-------------------------------|
A|----------------------------4--|-------------------------------|
E|-------------------------------|-------------------------------|
  weep at     night                       I       call your   name!


G|------- ------- ------- -------|------- ------- ------- -------|
D|2-------2-------2--------------|-------------------------------|
A|-------------------------------|-------------------------------|
E|--------------------5---4---5--|--------5-------5-------5------|
                                          I       call your   name!

Outro:
G|------- ------- ------- -------|------- ------- ------- -------|
D|2-------2-------2---2----------|-------------------------------|
A|-------------------------------|-------------------------------|
E|------------------------4---5--|--------5-------5-------5------|
                                          I       call your   name!
repeat and fade...

Please e-mail me for any corrections.
comments
We did not receive enough feedback on this tab! Please rate:
print report bad tab
1 2 3 4 5
I want to post or [tab]
guest
You may want to rate the tab now too:
select rating
Please do not post tabs as comments. Select "correction" instead!