Oops, an error
Loading. Please wait.

I Dont Want To Spoil The Party Chords

version 3
version 3

Interactive

15,541 views 96 this week
no commentswrite comment
1 2 3 4 5
excellent!
x 3
add to favorites
launch autoscroll
font size
0
reset
transpose
0
reset
simplify chords
- display chords -
guitar tuner
Tab Pro tools
  • play this tab
  • loop segment
  • change instrument
  • show fretboard
  • metronome
Autoscroll
slow
fast
+/-
esc
set tempo
stop
Contributor
Difficulty
novice
“I Don’t Want to Spoil the Party” by the Beatles from “Beatles for Sale”

Intro |G    |G    |D7sus |D7sus |
      |D7   |D7   |G     |G     |
 
Verse 1
       G
I don't want to spoil the party so I'll go,
 					     D7
I would hate for my disappointment to show,
 	Em		    B7		Am	  D 
There's nothing for me here so I will disappear,
 	G		    F 				G 
If she turns up while I'm gone please let me know.

Verse 2
       G
I've had a drink or two and I don't care,
  					     D7
There's no fun in what I do if she's not there,
  	Em		    B7		Am	  D
I wonder what went wrong I've waited far too long,
	G		    F 				G 
I think I'll take a walk and look for her.

Chorus
         	G				Em   A    C    D
 	Though tonight she's made me sad, I still love her.
         	G			 Em   A    C    D
 	If I find her I'll be glad, I still love her. 

Verse 1

Solo
e|----------------------------------------------------------------|
B|---0----1----2----3-----3----5----3----0----1----3p0----3p0-----|
G|---0----2----3----4----4-----5----4----0----2-------------------|
D|----------------------------------------------------------------|

e|-------------------------------------------------0----0----1--1--1--|
B|---0----1----2----3-----3----5----3----0----1----1----1----1--1--1--|
G|---0----2----3----4----4-----5----4----0----2-----------------------|
D|--------------------------------------------------------------------|

e|------------------------------------------------------|
B|--------0-----0------0----0----0---1----1----1------3-|
G|-----0-----0-----0------------------------2----2----4-|
D|------------------------------------------------------|

e|------------------------------------------------------------3-|
B|---0---1---2----3-----3----5----3----0----1----3p0----3p0-----|
G|---0---2---3----4----4-----5----4----0----2-------------------|
D|--------------------------------------------------------------|

Chorus
Verse 2
Intro
comments
We did not receive enough feedback on this tab! Please rate:
print report bad tab
1 2 3 4 5
I want to post or [tab]
guest
You may want to rate the tab now too:
select rating
Please do not post tabs as comments. Select "correction" instead!