Oops, an error
Loading. Please wait.

I Feel Fine Bass Tab

version 3
version 3
24,882 views 21 this week
no commentswrite comment
1 2 3 4 5
excellent!
x 4
add to favorites
launch autoscroll
font size
0
reset
guitar tuner
Tab Pro tools
  • play this tab
  • loop segment
  • change instrument
  • show fretboard
  • metronome
×
Best way to learn
"I Feel Fine"
Autoscroll
slow
fast
+/-
esc
set tempo
stop
Contributor

    -----------------------------------------------------------

    THE BEATLES - I FEEL FINE (Lennon & McCartney) Released as 
                  a single on 27th November, 1964 with SHE'S A 
                  WOMAN as flip side. 
   
    -----------------------------------------------------------

    Bass tab by:PJVillanueva






    On the recording of the I Feel Fine single (18th, October 1964),
    John used his Gibson J-160 E, plugged into his Vox AC 50. In a 
    quite studied manner, Paul's bass opening A note fed back John's 
    pickup, which he had approached to that effect to Paul's Vox AC 
    100 amp and its speakers' vibration produced that famous buzz, 
    for the first time on record, in his own open A note. The other 
    strings were muted).






    Baby’s good to me, you know,
    She’s happy as can be, you know,        
    She said so.                   
    I’m in love with her and I feel fine.

    Baby says she’s mine, you know,
    She tells me all the time, you know,        
    She said so.                
    I’m in love with her and I feel fine.
       
    I’m so glad that she’s my little girl.    
    She’s so glad, she’s telling all the world
      
    That her baby buys her things, you know.
    He buys her diamond rings, you know,      
    She said so.                  
    She’s in love with me and I feel fine, mmm.

              SOLO
   
    Baby says she’s mine, you know
    She tells me all the time, you know,
    She said so.                 
    I’m in love with her and I feel fine.
      
    I’m so glad that she’s my little girl. 
    She’s so glad, she’s telling all the world
             
    That her baby buys her things, you know.
    He buys her diamond rings, you know,     
    She said so.        
    She’s in love with me and I feel fine  
    She’s in love with me and I feel fine
    Mmmm, mmmm.
   





  G|------- ------- ------- -------|------- ------- ------- -------|
  D|7------------------------------|-------------------------------|
  A|-------------------------------|-------------------------------|
  E|-------------------------------|-------------------------------|

                             Guitar feedback
            *******************************************************
  G|------- ------- ------- -------|------- ------- ------- -------|
  D|-------------------------------|-------------------------------|
  A|-------------------------------|-------------------------------|
  E|-------------------------------|-------------------------------|

    INTRO

  G|------- ------- ------- -------|------- ------- ------- -------|
  D|-------------------------------|-------------------------------|
  A|-------------------------------|-------------------------------|
  E|-------------------------------|-------------------------------|



  G|------- ------- ------- -------|------- ------- ------- -------|
  D|-------------------------------|-------------------------------|
  A|-------------------------------|-------------------------------|
  E|-------------------------------|-------------------------------|



  G|------- ------- ------- -------|------- ------- ------- -------|
  D|-------------------------------|--------------------7--/12\----|
  A|-------------------------------|-------------------------------|
  E|-------------------------------|-------------------------------|


    00:13    (hand on pickup)
  G|------- ------- ------- -------|------- ------- ------- -------|
  D|5---------------x--------------|5-----------5------------------|
  A|----------------x--------------|----------------5--------------|
  E|-------------------------------|-------------------------------|
                                                                Baby's


  G|------- ------- ------- -------|------- ------- ------- -------|
  D|5------------------------------|5------------------------------|
  A|----------------5--------------|----------------5--------------|
  E|-------------------------------|-------------------------------|
                    good    to  me          you know    she's   happy


  G|------- ------- ------- -------|------- ------- ------- -------|
  D|5------------------------------|5------------------------------|
  A|----------------5--------------|----------------5--------------|
  E|-------------------------------|-------------------------------|
                as      can     be          you know        she said 
                                                      

  G|------- ------- ------- -------|------- ------- ------- -------|
  D|-------------------------------|-------------------------------|
  A|5------------------------------|5-----------x------------------|
  E|----------------5--------------|----------------5--------------|
            so


  G|------- ------- ------- -------|------- ------- ------- -------|
  D|-------------------------------|----------------5-----------4--|
  A|5---------------------------x--|3-----------x------------------|
  E|----------------5--------------|-------------------------------|
    I'm     in      love    with            and I       feel    
                                her

  G|------- ------- ------- -------|------- ------- ------- -------|
  D|5------------------------------|5---------------------------x--|
  A|----------------5-----------x--|----------------5--------------|
  E|-------------------------------|-------------------------------|
    fine

 
    00:29
  G|------- ------- ------- -------|------- ------- ------- -------| 
  D|5------------------------------|5------------------------------|
  A|----------------5--------------|----------------5--------------|
  E|-------------------------------|-------------------------------|
    Baby            says    she’s   mine,   you know,       She  
                                                                tells

  G|------- ------- ------- -------|------- ------- ------- -------|
  D|5------------------------------|5------------------------------|
  A|----------------5--------------|----------------5--------------|
  E|-------------------------------|-------------------------------|
            me      all     the time,       you know,       She said


  G|7------ ------- ------- -------|------- ------- ------- -------|
  D|----------------7--------------|----------------7--------------|
  A|-------------------------------|5------------------------------|
  E|-------------------------------|-------------------------------|
            so


  G|------- ------- ------- -------|------- ------- ------- -------|
  D|----------------7--------------|----------------5-----------4-/|
  A|5------------------------------|3------------------------------|
  E|-------------------------------|-------------------------------|
    I'm     in      love    with            and I       feel 
                                her

  G|------- ------- ------- -------|------- ------- ------- -------| 
  D|5------------------------------|5------------------------------|
  A|----------------5--------------|----------------5--------------|
  E|-------------------------------|-------------------------------|
    fine


    00:42
  G|------- ------- ------- -------|------- ------- ------- -------|
  D|5------------------------------|-------------------------------|
  A|----------------5-----------\--|2-----------x------------------|
  E|-------------------------------|----------------2--------------|
    I'm             so              glad                    that


  G|------- ------- ------- -------|------- ------- ------- -------|
  D|-------------------------------|-------------------------------|
  A|3-----------x---------------3-/|5-----------5------------------|
  E|----------------3--------------|----------------5--------------|
    she's   my      little      girl


  G|------- ------- ------- -------|------- ------- ------- -------|
  D|5-----------5------------------|-------------------------------|
  A|----------------5--------------|2-----------2------------------|
  E|-------------------------------|----------------2--------------|
    She's           so              glad                    she's


  G|------- ------- ------- -------|------- ------- ------- -------|
  D|----------------2--------------|0-----------0-----------0------|
  A|0-----------3------------------|----------------0--------------|
  E|-------------------------------|-------------------------------|
    telling     all         the world               that        baby
                                                        her


    00:53
  G|------- ------- ------- -------|------- ------- ------- -------|
  D|5-----------5------------------|5-----------x------------------|
  A|----------------5--------------|----------------5--------------|
  E|-------------------------------|-------------------------------|
                    buys    her     things, you know


  G|------- ------- ------- -------|------- ------- ------- -------|
  D|5------------------------------|5------------------------------|
  A|----------------5--------------|----------------5--------------|
  E|-------------------------------|-------------------------------|
    buys    her     diamond     rings,      you know,       she said


  G|------- ------- ------- -------|------- ------- ------- 5-H-7--|
  D|-------------------------------|----------------5-H-7----------|
  A|5------------------------------|5------------------------------|
  E|----------------5--------------|-------------------------------|
            so


  G|------- ------- ------- -------|------- ------- ------- -------|
  D|----------------7--------------|----------------5-----------5--|
  A|5------------------------------|3------------------------------|
  E|-------------------------------|-------------------------------|
    She’s   in      love    with            and I       feel
                                me 


  G|------- ------- ------- -------|------- ------- ------- -------|
  D|5------------------------------|5-----------------------3---3-/|
  A|----------------5--------------|----------------2-H-5----------|
  E|-------------------------------|-------------------------------|
    fine                        Mmmmmmmmmmmmmmmmmmmmmmmmmmmmmm.


    SOLO
    01:06
  G|------- ------- ------- -------|------- ------- ------- -------|
  D|5-----------5------------------|5------------------------------|
  A|----------------5--------------|----------------5--------------|
  E|-------------------------------|-------------------------------|



  G|------- ------- ------- -------|------- ------- ------- -------|
  D|5------------------------------|5------------------------------|
  A|----------------5--------------|----------------5--------------|
  E|-------------------------------|-------------------------------|



  G|------- ------- ------- -------|------- ------- ------- -------|
  D|----------------7--------------|----------------7--------------|
  A|5------------------------------|5------------------------------|
  E|-------------------------------|-------------------------------|


   (.
  G|------- ------- ------- -------|------- ------- ------- -------|
  D|-------------------------------|-------------------------------|
  A|5------------------------------|-------------------------------|
  E|-------------------------------|-------------------------------|



  G|------- ------- ------- -------|------- ------- ------- -------|
  D|-------------------------------|-------------------------------|
  A|-------------------------------|-------------------------------|
  E|-------------------------------|-------------------------------|


            x       X     x X       x       X     x X       x

  G|------- ------- ------- -------|------- ------- ------- -------|
  D|5-------5-------5-----5-5------|5-------5-----5-5-------5------|
  A|-------------------------------|-------------------------------|
  E|-------------------------------|-------------------------------|



  G|------- ------- ------- -------|------- ------- ------- -------|
  D|5------------------------------|5------------------------------|
  A|----------------5--------------|----------------5--------------|
  E|-------------------------------|-------------------------------|

    

    01:25                                                           
  G|------- ------- ------- -------|------- ------- ------- -------| 
  D|5------------------------------|5------------------------------|
  A|----------------5-----------x--|----------------5--------------|
  E|-------------------------------|-------------------------------|
    Baby            says    she’s   mine,   you know,       She  
                                                                tells

  G|------- ------- ------- -------|------- ------- ------- -------|
  D|5------------------------------|5------------------------------|
  A|----------------5-----------x--|----------------5--------------|
  E|-------------------------------|-------------------------------|
            me      all     the time,       you know,       She said


  G|------- ------- ------- -------|------- ------- ------- -------|
  D|----------------7--------------|----------------7--------------|
  A|5------------------------------|5------------------------------|
  E|-------------------------------|-------------------------------|
            so


  G|------- ------- ------- -------|------- ------- ------- -------|
  D|----------------7--------------|----------------5--------------|
  A|5------------------------------|3------------------------------|
  E|-------------------------------|-------------------------------|
    I'm     in      love    with            and I       feel 
                                her

  G|------- ------- ------- -------|------- ------- ------- -------| 
  D|5------------------------------|5------------------------------|
  A|----------------5-----------x--|----------------5--------------|
  E|-------------------------------|-------------------------------|
    fine


   01:39
  G|------- ------- ------- -------|------- ------- ------- -------|
  D|5------------------------------|-------------------------------|
  A|----------------5-----------3--|2------------------------------|
  E|-------------------------------|----------------2--------------|
    I'm             so              glad                    that


  G|------- ------- ------- -------|------- ------- ------- -------|
  D|-------------------------------|-------------------------------|
  A|3-----------3------------------|5-----------5------------------|
  E|----------------3--------------|----------------5--------------|
    she's   my      little      girl


  G|------- ------- ------- -------|------- ------- ------- -------|
  D|5-----------5------------------|-------------------------------|
  A|----------------5--------------|2-----------2------------------|
  E|-------------------------------|----------------2--------------|
    She's           so              glad                    she's


  G|------- ------- ------- -------|------- ------- ------- -------|
  D|----------------2--------------|0-----------0-----------0------|
  A|0-----------3------------------|----------------0--------------|
  E|-------------------------------|-------------------------------|
    telling     all         the world               that        baby
                                                        her


    00:53
  G|------- ------- ------- -------|------- ------- ------- -------|
  D|5-----------5------------------|-------------------------------|
  A|----------------5--------------|------------x---5-------5------|
  E|-------------------------------|3------------------------------|
                    buys    her     things, you know


  G|------- ------- ------- -------|------- ------- ------- -------|
  D|5-------5-------------------x--|5------------------------------|
  A|----------------5--------------|----------------5--------------|
  E|-------------------------------|-------------------------------|
    buys    her     diamond     rings,      you know,       she said


  G|------- ------- ------- -------|------- ------- ------- 5-H-7--|
  D|----------------7--------------|----------------5-H-7----------|
  A|5------------------------------|5------------------------------|
  E|-------------------------------|-------------------------------|
            so


    01:57
  G|------- ------- ------- -------|------- ------- ------- -------|
  D|----------------7-----------x--|----------------5--------------|
  A|5------------------------------|3---------------------------5--|
  E|-------------------------------|-------------------------------|
    She’s   in      love    with            and I       feel
                                me 


  G|------- ------- ------- -------|------- ------- ------- -------|
  D|5------------------------------|5-----------------------5------|
  A|----------------5--------------|----------------5--------------|
  E|-------------------------------|-------------------------------|
    fine                        



  G|7------ ------- ------- -------|5------ ------- ------- -------|
  D|----------------7--------------|----------------5--------------|
  A|-------------------------------|-------------------------------|
  E|-------------------------------|-------------------------------|
    She’s   in      love    with            and I       feel
                                me 

   (.
  G|------- ------- ------- -------|------- ------- ------- -------|
  D|5------------------------------|-------------------------------|
  A|-------------------------------|-------------------------------|
  E|-------------------------------|-------------------------------|
    fine                                                        Hmm

                            x               x               x
  G|------- ------- ------- -------|------- ------- ------- -------|
  D|-------------------------------|-------------------------------|
  A|-------------------------------|-------------------------------|
  E|-------------------------------|-------------------------------|
    mmmmmmmmmmmmmmmmmm


            x               x
  G|------- ------- ------- -------|------- ------- ------- -------|
  D|-------------------------------|-------------------------------|
  A|-------------------------------|-------------------------------|
  E|-------------------------------|-------------------------------|
                                                                Hmm

                            x
  G|------- ------- ------- -------|------- ------- ------- -------|
  D|-------------------------------|-------------------------------|
  A|-------------------------------|-------------------------------|
  E|-------------------------------|-------------------------------|
    mmmmmmmmmmmmmmmmmm
            wowww       woww            wowww   wowww   wowww






        B  Bend
        R  Release
        /  slide up
        \  slide down
        H  hammer-on
        P  pull-off
        ~  vibrato
        +  harmonic
        x  Mute note
        . - play note like a dot in standard notation
        ^ - ties two notes together
        (.  Pause


comments
print report bad tab
I want to post or [tab]
guest
You may want to rate the tab now too:
select rating
Please do not post tabs as comments. Select "correction" instead!