Oops, an error
Loading. Please wait.

I Feel Fine Tab

version 3
version 3
18,708 views 16 this week
7 commentsread comments
1 2 3 4 5
excellent!
x 13
add to favorites
launch autoscroll
font size
0
reset
how to read this tab
guitar tuner
Tab Pro tools
  • play this tab
  • loop segment
  • change instrument
  • show fretboard
  • metronome
×
Best way to learn
"I Feel Fine"
Autoscroll
slow
fast
+/-
esc
set tempo
stop
Contributor
Title: I Feel Fine
Artist: The Beatles
Album: 

Instrument: 6 String Guitar

Tabbed by: Gary (rock_n__roll@hotmail.co.uk)

Tuning: Standard (E A D G B E)




Intro:
E|-------|--------|--------|--------|--------|------------------------||
B|-------|--------|--------|--------|--------|------------------------||
G|-------|--------|--------|--------|--------|--------------------12--||
D|-------|--------|--------|--------|--------|-------12--12-10--------||
A|-0-----|--------|---(0)--|--------|--------|-----------------12-----||
E|-------|--------|--------|--------|--------|----10-----------10-----||
(Feedback occurs as a vibrating string striking a nearby fingernail)


                            C
E|------------------------|--------------------|-----------------||
B|------------------------|--------------------|-----------------||
G|-(12)-11------11----11\-|-----------------10-|--9------9-------||
D|----------14-----14-----|---10--10--8------8-|--8--12--8--12\--||
A|----------12------------|---10-----10--10----|------------10\--||
E|------------------------|-8-------------8----|-----------------||


   G
E|---------------------|-----------------|----------------------||
B|---------------------|-----------------|----------------------||
G|-------------------5-|--4------4-------|-------------------5--||
D|----5-----5--3-----3-|--3--7---3--7----|----5-----5--3--------||
A|-5-----5--------5----|-----5------5--5-|-5--5--5--------5--5--||
E|-3--------------3----|-----------------|-3--------------3-----||



E|-----------------||
B|-----------------||
G|-4------4--------||
D|-3--7---3--7-----||
A|----5------5--5--||
E|-----------------||


Verse:
   G
E|---------------------|----------------|------------------------||
B|---------------------|----------------|------------------------||
G|-------------4-----5-|--4-------4-----|--------------------5---||
D|----5-----5--3-----3-|--3---7---3--7--|-----5-----5--3---------||
A|-5--5--5--------5----|------5------5--|--5--5--5--------5--5---||
E|-3--------------3----|----------------|--3--------------3------||
 (Babys  good   to  me   you know shes ha  - ppy   as  can   be)
 (Baby  says  shes mine  you know she tells   me  all  the  time)

                    D
E|----------------|-------------------------|-----------------------||
B|----------------|-------------------------|-----------------------||
G|-4-------4------|-------------11------12--|--11----------11-------||
D|-3---7---3--7/--|-----12--12--10----------|---------14---10--14\--||
A|-----5------5/--|-----12----------12--12--|--12-----12-------12\--||
E|----------------|-10--------------10------|------10---------------||
 (you know  she said    so)
 (you know  she said    so)



Chorus:
   D                  C                        G
E|---------------------|---------------------|----------------------||
B|---------------------|---------------------|----------------------||
G|-----11--------------|---------------------|-------------------5--||
D|-----12--12----------|---------------------|----5-----5--3--------||
A|-12--10--12--12---10-|---------10--10\-----|-5--5--5--------5--5--||
E|-10----------------8-|----------8---8\---3-|-3--------------3-----||
 (Im  in  love  with her     and i   feel    fine)



Bridge:
   G              Bm               C                D
E|----------------|------------------|----------------|----------------||
B|----------------|---3--3-----------|-------1--1-----|--3--3----------||
G|----------------|---4--4------4--0-|-------0--0-----|--2--2--2-------||
D|----5-----5---4-|---4--4------4--2-|---2---2--2---0-|--0--0--0--0--x-||
A|-5-----5------2-|----------2-----3-|---3---3--3-----|----------------||
E|-3-----3--------|------------------|----------------|----------------||
 (Im    so        glad         that  shes my little girl)
                                    (Oo,              oo,)


   G                 Bm                Am                  D
E|-------------------|----------------|------------------|-------2-----||
B|-------------------|-----3--3----3--|------------1-----|-3-----3---3-||
G|-------------------|-----4--4----4--|-----2------2-----|-2--2--2---2-||
D|----5--5------5--5-|--4--4--4----4--|-2---2------2---0-|----0--0---0-||
A|-5--------5--------|--2-----2----2--|-0---0---0--------|-------------||
E|-3--------3--------|----------------|------------------|-------------||
 (Shes     so        glad        shes tellin  all  the world    that her)
                                  (Oo,                  oo,)


Verse:
   G
E|---------------------|----------------|------------------------||
B|---------------------|----------------|------------------------||
G|-------------4-----5-|--4-------4-----|--------------------5---||
D|----5-----5--3-----3-|--3---7---3--7--|-----5-----5--3---------||
A|-5--5--5--------5----|------5------5--|--5--5--5--------5--5---||
E|-3--------------3----|----------------|--3--------------3------||
 (Baby  buys  her things you know   he  buys her diamond rings)


                    D
E|----------------|-------------------------|-----------------------||
B|----------------|-------------------------|-----------------------||
G|-4-------4------|-------------11------12--|--11----------11-------||
D|-3---7---3--7/--|-----12--12--10----------|---------14---10--14\--||
A|-----5------5/--|-----12----------12--12--|--12-----12-------12\--||
E|----------------|-10--------------10------|------10---------------||
 (you know  she said    so)



Chorus:
                       C                       G
E|---------------------|---------------------|----------------------||
B|---------------------|---------------------|----------------------||
G|-----11--------------|---------------------|-------------------5--||
D|-----12--12----------|---------------------|----5-----5--3--------||
A|-12--10--12--12---10-|---------10--10\-----|-5--5--5--------5--5--||
E|-10----------------8-|----------8---8\---3-|-3--------------3-----||
 (shes  in  love  with me     and i   feel    fine)



Guitar solo:
   G
E|---------------|------------------|--------------|------------------||
B|------6-----8--|-----6------------|-----6-----8--|-----6------------||
G|-5/7----/9-----|-5/7---7\5--3-----|-5/7---/9-----|-5/7---7\5--3-----||
D|---------------|---------------5--|--------------|---------------5--||
A|---------------|------------------|--------------|------------------||
E|---------------|------------------|--------------|------------------||



                                               Breakdown:
   D                                              D
E|---------------------------------------------||---------------------||
B|---------------------------------------------||---------------------||
G|------------------12---(12)-11------11----11-||-----------------12--||
D|-----12--12-10------------------14-----14----||----12--12-10----10--||
A|---------------------------------------------||--------------12-----||
E|-10------------10----------------------------||-10-----------10-----||



                       C               
E|-------------------|-----------------------|------------------||
B|-------------------|-----------------------|------------------||
G|-11-------11-------|-------------------10--|--9-------9-------||
D|-10--14---10--14\--|----10--10---8------8--|--8--12---8--12\--||
A|-----12-------12\--|----10------10--10-----|-----10------10\--||
E|-------------------|-8---------------8-----|------------------||



   G
E|------------------------|------------------|----------------------||
B|------------------------|------------------|----------------------||
G|---------------------5--|--4------4--------|-------------------5--||
D|----5-------5--3-----x--|--3--7---3--7-----|----5-----5--3-----x--||
A|-5--5--(5)--------5--5--|-----5------5--5--|-5--5--5--------5--5--||
E|-3----------------3-----|------------------|-3--------------3-----||




E|-----------------||
B|-----------------||
G|-4------4-----4--||
D|-3--7---3--7--3--||
A|----5------5-----||
E|-----------------||


KEY:
s = quick slide
/ = slide up
\ = slide down
h = hammer on
p = pull off
x = dead note
comments
print report bad tab
7 comments total. Showing first comments.
0 reply
Jibbs wrote on October 29 2005, 01:37 am

Damn, and here I thought I was the only one who did the opening "buzz" with my fingernail. ;)

Good tab.

0 reply
alkyrockerMF wrote on October 29 2005, 09:49 am

wow great tab man. 5 stars from me

0 reply
hippieboy444 wrote on July 14 2006, 02:30 pm

this is from the book!

I want to post or [tab]
guest
You may want to rate the tab now too:
select rating
Please do not post tabs as comments. Select "correction" instead!