Oops, an error
Loading. Please wait.

I Feel Fine Ukulele Chords

version 3
version 3

Whole song

10 views 1 this week
no commentswrite comment
1 2 3 4 5
3 more votes to show rating
add to favorites
launch autoscroll
font size
0
reset
transpose
0
reset
display chords
guitar tuner
Autoscroll
slow
fast
+/-
esc
set tempo
stop
Help us to improve Ultimate-Guitar.com Take our survey!
×
Author
Difficulty
advanced
About this tab version
Ukulele tab with solo section/ Requires linear tuning. Was this info helpful? Yes No
[READ BEFORE ATTEMPTING TO PLAY]
This version requires your ukulele to have linear tuning instead of re-entrant tuning.
This means the first string 'g' will be tuned a whole octave lower 'G'. 
If you don't have linear tuning, then you will require a new G string or a new string set.
I understand a lot of you might not have the need or the money for new strings, 
so this tab will still be practicable with re-entrant tuning until you can obtain the right 
strings, it just wont sound right. 
[READ BEFORE ATTEMPTING TO PLAY]

Chords used in chorus section:
   D   C   G   Bm  Am
A|-5---3---2---2---3---|
E|-5---3---3---2---5---|
C|-6---4---2---2---4---|
G|-7---5---4---4---5---|

[Intro]
   D                              C
A|-----------------10-9---7---9p7---------------8-7---5---7p5-|
E|-----10---10p8----------------------8---8p6-----------------|
C|---------------9----------------------------7---------------|
G|-7------------------------------5---------------------------|

   G                           G
A|---------------3-2---0---2p0---------------3-2---0---2p0-|
E|-----3---3p1---------------------3---3p1-----------------|
C|-------------2---------------------------2---------------|
G|-0---------------------------0---------------------------|

[Verse]
   G                           G
A|---------------3-2---0---2p0---------------3-2---0---2p0-|
E|-----3---3p1---------------------3---3p1-----------------|
C|-------------2---------------------------2---------------|
G|-0---------------------------0---------------------------|

   D                               D           C
A|-----------------10-9---7---9p7--5--5--5--5--3--3--3--3--|
E|-----10---10p8-------------------5--5--5--5--3--3--3--3--|
C|---------------9-----------------6--6--6--6--4--4--4--4--|
G|-7-------------------------------7--7--7--7--5--5--5--5--|

   G                           
A|---------------3-2---0---2p0-|
E|-----3---3p1-----------------|
C|-------------2---------------|
G|-0---------------------------|

[Verse]
   G                           G
A|---------------3-2---0---2p0---------------3-2---0---2p0-|
E|-----3---3p1---------------------3---3p1-----------------|
C|-------------2---------------------------2---------------|
G|-0---------------------------0---------------------------|

   D                               D           C
A|-----------------10-9---7---9p7--5--5--5--5--3--3--3--3--|
E|-----10---10p8-------------------5--5--5--5--3--3--3--3--|
C|---------------9-----------------6--6--6--6--4--4--4--4--|
G|-7-------------------------------7--7--7--7--5--5--5--5--|

   G                           
A|---------------3-2---0---2p0-|
E|-----3---3p1-----------------|
C|-------------2---------------|
G|-0---------------------------|

[Chorus]
G      Bm        C               D
I'm so glad that she's my little girl
G        Bm         Am              D
She's so glad she's telling all the world

[Verse]
   G                           G
A|---------------3-2---0---2p0---------------3-2---0---2p0-|
E|-----3---3p1---------------------3---3p1-----------------|
C|-------------2---------------------------2---------------|
G|-0---------------------------0---------------------------|

   D                               D           C
A|-----------------10-9---7---9p7--5--5--5--5--3--3--3--3--|
E|-----10---10p8-------------------5--5--5--5--3--3--3--3--|
C|---------------9-----------------6--6--6--6--4--4--4--4--|
G|-7-------------------------------7--7--7--7--5--5--5--5--|

   G                           
A|---------------3-2---0---2p0-|
E|-----3---3p1-----------------|
C|-------------2---------------|
G|-0---------------------------|

[Instrumental Section]
A|-------8--------10-------8------------------8--------10-------8-----------|
E|-8h10----10h12-----8h10----10p8-------8h10----10h12-----8h10----10p8------|
C|--------------------------------10-7---------------------------------10-7-|
G|--------------------------------------------------------------------------|

A|-----------------10-9---7---9p7-|
E|-----10---10p8------------------|
C|---------------9----------------|
G|-7------------------------------|

A|-----------------10-9---7---9p7---------------8-7---5---7p5-|
E|-----10---10p8----------------------8---8p6-----------------|
C|---------------9----------------------------7---------------|
G|-7------------------------------5---------------------------|

A|---------------3-2---0---2p0---------------3-2---0---2p0-|
E|-----3---3p1---------------------3---3p1-----------------|
C|-------------2---------------------------2---------------|
G|-0---------------------------0---------------------------|

[Verse]
   G                           G
A|---------------3-2---0---2p0---------------3-2---0---2p0-|
E|-----3---3p1---------------------3---3p1-----------------|
C|-------------2---------------------------2---------------|
G|-0---------------------------0---------------------------|

   D                               D           C
A|-----------------10-9---7---9p7--5--5--5--5--3--3--3--3--|
E|-----10---10p8-------------------5--5--5--5--3--3--3--3--|
C|---------------9-----------------6--6--6--6--4--4--4--4--|
G|-7-------------------------------7--7--7--7--5--5--5--5--|

   G                           
A|---------------3-2---0---2p0-|
E|-----3---3p1-----------------|
C|-------------2---------------|
G|-0---------------------------|

[Chorus]
G      Bm        C               D
I'm so glad that she's my little girl
G        Bm         Am              D
She's so glad she's telling all the world

[Verse]
   G                           G
A|---------------3-2---0---2p0---------------3-2---0---2p0-|
E|-----3---3p1---------------------3---3p1-----------------|
C|-------------2---------------------------2---------------|
G|-0---------------------------0---------------------------|

   D                               D           C
A|-----------------10-9---7---9p7--5--5--5--5--3--3--3--3--|
E|-----10---10p8-------------------5--5--5--5--3--3--3--3--|
C|---------------9-----------------6--6--6--6--4--4--4--4--|
G|-7-------------------------------7--7--7--7--5--5--5--5--|

   G                           
A|---------------3-2---0---2p0-|
E|-----3---3p1-----------------|
C|-------------2---------------|
G|-0---------------------------|

[Outro]
   D           C           G                           
A|-5--5--5--5--3--3--3--3----------------3-2---0---2p0-|
E|-5--5--5--5--3--3--3--3------3---3p1-----------------|
C|-6--6--6--6--4--4--4--4--------------2---------------|
G|-7--7--7--7--5--5--5--5--0---------------------------|

A|---------------3-2---0---2p0-|
E|-----3---3p1-----------------|
C|-------------2---------------|   Repeat and fade
G|-0---------------------------|


************************************

| p  Pull-off
| h  Hammer-on

************************************
Suggest correction
Give kudos to tab author, rate the tab!
1 2 3 4 5
comments
print report bad tab
guest
You may want to rate the tab now too:
select rating
Wanna post a correction for this tab? Suggest correction