Oops, an error
Loading. Please wait.

I Feel Fine Bass Tab

version 4
version 4
5,206 views 1 this week
no commentswrite comment
1 2 3 4 5
accurate
x 4
add to favorites
launch autoscroll
font size
0
reset
guitar tuner
Tab Pro tools
  • play this tab
  • loop segment
  • change instrument
  • show fretboard
  • metronome
×
Best way to learn
"I Feel Fine"
Autoscroll
slow
fast
+/-
esc
set tempo
stop
Contributor
I FEEL FINE


INTRO


G|---------------------------------|---------------------------------|
D|---------------------------------|---------------------------------|
A|-12------------------------------|---------------------------------|
E|---------------------------------|---------------------------------|


G|---------------------------------|---------------------------------|
D|---------------------------------|---------------------------------|
A|---------------------------------|---------------------------------|
E|---------------------------------|---------------------------------|


G|---------------------------------|---------------------------------|
D|---------------------------------|---------------------------------|
A|---------------------------------|---------------------------------|
E|---------------------------------|---------------------------------|


G|---------------------------------|---------------------------------|
D|---------------------------------|---------------------------------|
A|---------------------------------|---------------------------------|
E|---------------------------------|---------------------------------|


G|---------------------------------|---------------------------------|
D|---------------------------------|---------------------7-/-12\-----|
A|---------------------------------|---------------------------------|
E|---------------------------------|---------------------------------|


G|---------------------------------|---------------------------------|
D|---------------------------------|---------------------------------|
A|-----------------x---------------|-----------------5---------------|
E|-3-----------3-------------------|-3-----------3-------------------|


VERSE


G|---------------------------------|---------------------------------|
D|---------------------------------|---------------------------------|
A|-----------------5---------------|-----------------5---------------|
E|-3-----------3-------------------|-3-----------3-------------------|
   Baby’s          good    to  me           you know     she’s   happy

G|---------------------------------|---------------------------------|
D|---------------------------------|---------------------------------|
A|-----------------5---------------|-----------------5---------------|
E|-3-----------3-------------------|-3-----------3-------------------|
               as      can     be            you know        she said

G|---------------------------------|---------------------------------|
D|---------------------------------|---------------------------------|
A|-5-----------5-------------------|-5-----------5-------------------|
E|-----------------5---------------|-----------------5---------------|
           so

G|---------------------------------|---------------------------------|
D|---------------------------------|---------------------------------|
A|-5-----------5---------------5---|-3-----------3-------------------|
E|-----------------5---------------|-----------------3-----------2---|
   I’m     in      love   with her           and I       feel

G|---------------------------------|---------------------------------|
D|---------------------------------|---------------------------------|
A|-----------------5-----------5---|-----------------5---------------|
E|-3-------------------------------|-3-----------3-------------------|
   fine

VERSE


G|---------------------------------|---------------------------------|
D|---------------------------------|---------------------------------|
A|-----------------5---------------|-----------------5---------------|
E|-3-----------3-------------------|-3-----------3-------------------|
   Baby            says  she’s mine          you know    she     tells

G|---------------------------------|---------------------------------|
D|---------------------------------|---------------------------------|
A|-----------------5---------------|-----------------5---------------|
E|-3-----------3-------------------|-3-----------3---------------5---|
       me      all     the     time          you know        she said

G|---------------------------------|---------------------------------|
D|---------------------------------|---------------------------------|
A|-5-----------5-------------------|-5-----------5-------------------|
E|-----------------5---------------|-----------------5---------------|
           so

G|---------------------------------|---------------------------------|
D|---------------------------------|---------------------------------|
A|-5-----------5---------------2---|-3-----------3-------------------|
E|-----------------5---------------|-----------------3-----------2---|
   I’m     in      love   with her           and I       feel

G|---------------------------------|---------------------------------|
D|---------------------------------|---------------------------------|
A|-----------------5---------------|-----------------5---------------|
E|-3-----------3-------------------|-3-----------3-------------------|
   fine

BRIDGE


G|---------------------------------|---------------------------------|
D|---------------------------------|---------------------------------|
A|---------------------------------|-2-----------2-------------------|
E|-3-----------3---3---------------|-----------------2---------------|
   I’m             so                glad                    that

G|---------------------------------|---------------------------------|
D|---------------------------------|---------------------------------|
A|-3-----------3---------------3---|-5-----------5-------------------|
E|-----------------3---------------|-----------------5---------------|
   she’s   my      little      girl

G|---------------------------------|---------------------------------|
D|---------------------------------|---------------------------------|
A|-----------------5---------------|-2-----------2-------------------|
E|-3-----------3-------------------|-----------------2---------------|
   She’s           so                glad                    she’s

G|---------------------------------|---------------------------------|
D|-----------------2---------------|---------------------------------|
A|-0-----------3-------------------|-5-----------5-----------5-------|
E|---------------------------------|-----------------5---------------|
   tellin’     all         the world                that her     baby

VERSE


G|---------------------------------|---------------------------------|
D|---------------------------------|---------------------------------|
A|-----------------5---------------|-----------------5---------------|
E|-3-----------3-------------------|-3-----------3-------------------|
                   buys    her things        you know            he

G|---------------------------------|---------------------------------|
D|---------------------------------|---------------------------------|
A|-----------------5---------------|-----------------5---------------|
E|-3-----------3-------------------|-3-----------3---------------5---|
   buys    her     diamond     rings         you know        she said

G|---------------------------------|-------------------------5-h-7---|
D|---------------------------------|-----------------5-h-7-----------|
A|-5-----------5-------------------|-5-------------------------------|
E|-----------------5---------------|---------------------------------|
           so

G|---------------------------------|---------------------------------|
D|---------------------------------|---------------------------------|
A|-5-----------5-------------------|-3-----------3-------------------|
E|-----------------5---------------|-----------------3-----------3---|
   she’s   in      love   with me            and I       feel

G|---------------------------------|---------------------------------|
D|---------------------------------|-------------------------3---3---|
A|-----------------5---------------|-----------------2-h-5-----------|
E|-3-------------------------------|-3-------------------------------|
   fine                        mm

GUITAR SOLO


G|---------------------------------|---------------------------------|
D|---------------------------------|---------------------------------|
A|-----------------5---------------|-----------------5---------------|
E|-3-----------3-------------------|-3-------------------------------|


G|---------------------------------|---------------------------------|
D|---------------------------------|---------------------------------|
A|-----------------5---------------|-----------------5---------------|
E|-3-------------------------------|-3-------------------------------|


G|---------------------------------|---------------------------------|
D|---------------------------------|---------------------------------|
A|-5-------------------------------|-5-------------------------------|
E|-----------------5---------------|-----------------5---------------|


BREAKDOWN


G|---------------------------------|---------------------------------|
D|---------------------------------|---------------------------------|
A|-5-------------------------------|---------------------------------|
E|---------------------------------|---------------------------------|


G|---------------------------------|---------------------------------|
D|---------------------------------|---------------------------------|
A|---------------------------------|---------------------------------|
E|---------------------------------|---------------------------------|


G|---------------------------------|---------------------------------|
D|-5-------5-------5-----5-5-------|-5-------5-----5-5-------5-------|
A|---------------------------------|---------------------------------|
E|---------------------------------|---------------------------------|


G|---------------------------------|---------------------------------|
D|---------------------------------|---------------------------------|
A|-----------------5---------------|-----------------5---------------|
E|-3-----------3-------------------|-3-----------3-------------------|


VERSE


G|---------------------------------|---------------------------------|
D|---------------------------------|---------------------------------|
A|-----------------5-----------5---|-----------------5---------------|
E|-3-----------3-------------------|-3-----------3-------------------|
   Baby            says  she’s mine          you know    she     tells

G|---------------------------------|---------------------------------|
D|---------------------------------|---------------------------------|
A|-----------------5-----------5---|-----------------5---------------|
E|-3-----------3-------------------|-3-----------3-------------------|
       me      all     the     time          you know        she said

G|---------------------------------|---------------------------------|
D|---------------------------------|---------------------------------|
A|-5-----------5-------------------|-5-------------------------------|
E|-----------------5---------------|-----------------5---------------|
           so

G|---------------------------------|---------------------------------|
D|---------------------------------|---------------------------------|
A|-5-----------5-------------------|-3-----------3-------------------|
E|-----------------5---------------|-----------------3---------------|
   I’m     in      love   with her           and I       feel

G|---------------------------------|---------------------------------|
D|---------------------------------|---------------------------------|
A|-----------------5-----------5---|-----------------5---------------|
E|-3-------------------------------|-3-----------3-------------------|
   fine

BRIDGE


G|---------------------------------|---------------------------------|
D|---------------------------------|---------------------------------|
A|---------------------------------|-2-------------------------------|
E|-3---------------3---------------|-----------------2---------------|
   I’m             so                glad                    that

G|---------------------------------|---------------------------------|
D|---------------------------------|---------------------------------|
A|-3-----------3-------------------|-5-----------5-------------------|
E|-----------------3---------------|-----------------5---------------|
   she’s   my      little      girl

G|---------------------------------|---------------------------------|
D|---------------------------------|---------------------------------|
A|-----------------5---------------|-2-----------2-------------------|
E|-3-----------3-------------------|-----------------2---------------|
   She’s           so                glad                    she’s

G|---------------------------------|---------------------------------|
D|-----------------2---------------|---------------------------------|
A|-0-----------3-------------------|-5-----------5-----------5-------|
E|---------------------------------|-----------------5---------------|
   tellin’     all         the world                that her     baby

VERSE


G|---------------------------------|---------------------------------|
D|---------------------------------|---------------------------------|
A|-----------------5---------------|-----------------5---------------|
E|-3-----------3-------------------|-3-----------3-------------------|
                   buys    her things        you know            he

G|---------------------------------|---------------------------------|
D|---------------------------------|---------------------------------|
A|-----------------5---------------|-----------------5---------------|
E|-3-----------3-------------------|-3-----------3-------------------|
   buys    her     diamond     rings         you know        she said

G|---------------------------------|-------------------------5-h-7---|
D|---------------------------------|-----------------5-h-7-----------|
A|-5-----------5-------------------|-5-------------------------------|
E|-----------------5---------------|---------------------------------|
           so

G|---------------------------------|---------------------------------|
D|---------------------------------|---------------------------------|
A|-5-----------5-------------------|-3-----------3-------------------|
E|-----------------5---------------|-----------------3---------------|
   she’s   in      love   with me            and I       feel

G|---------------------------------|---------------------------------|
D|---------------------------------|---------------------------------|
A|-----------------5---------------|-----------------5---------------|
E|-3-----------3-------------------|-3-----------3-----------3-------|
   fine

G|---------------------------------|---------------------------------|
D|---------------------------------|---------------------------------|
A|-5-----------5-------------------|-3-----------3-------------------|
E|-----------------5---------------|-----------------3---------------|
   she’s   in      love   with me            and I       feel

G|---------------------------------|---------------------------------|
D|-5-------------------------------|---------------------------------|
A|-5-------------------------------|---------------------------------|
E|---------------------------------|---------------------------------|
   fine                                                          mm

G|---------------------------------|---------------------------------|
D|---------------------------------|---------------------------------|
A|---------------------------------|---------------------------------|
E|---------------------------------|---------------------------------|


G|---------------------------------|---------------------------------|
D|---------------------------------|---------------------------------|
A|---------------------------------|---------------------------------|
E|---------------------------------|---------------------------------|
                                                                 mm
comments
print report bad tab
I want to post or [tab]
guest
You may want to rate the tab now too:
select rating
Please do not post tabs as comments. Select "correction" instead!