Oops, an error
Loading. Please wait.

I Got A Woman Bass Tab

4,561 views 21 this week
no commentswrite comment
1 2 3 4 5
excellent!
x 2
add to favorites
launch autoscroll
font size
0
reset
guitar tuner
Tab Pro tools
  • play this tab
  • loop segment
  • change instrument
  • show fretboard
  • metronome
Autoscroll
slow
fast
+/-
esc
set tempo
stop
Contributor
I Got A Woman
The Beatles
Written by Ray Charles

A nice soul song, John sings a great vocal again.

Refrain:
G|------ ------ ------ ------|------ ------ ------ ------|
D|---------------------------|---------------------------|
A|---------------------------|---------------------------|
E|---------------------------|---------------------------|
                              Well,     I      got     a


G|------ ------ ------ ------|------ ------ ------ ------|
D|---------------------------|---------------------------|
A|---------------------------|---------------------------|
E|---------------------------|---------------------------|
  wo- man                                   way 'cross


G|------ ------ ------ ------|------ ------ ------ ------|
D|---------------------------|---------------------------|
A|---------------------------|---------------------------|
E|---------------------------|---------------------------|
  town,                              She's  good   for me,


G|------ ------ ------ ------|------ ------ ------ ------|
D|---------------------------|---------------------------|
A|---------------------------|---------------------------|
E|---------------------------|---------------------------|
                                         oh,       oh,


G|------ ------ ------ ------|------ ------ ------ ------|
D|---------------------------|---------------------------|
A|---------------------------|---------------------------|
E|---------------------------|---------------------------|
  yeah                            I  say    I      got a


G|------ ------ ------ ------|------ ------ ------ ------|
D|7--------------------------|7----------7---------------|
A|--------------7------------|--------------7------------|
E|---------------------------|---------------------------|
  wo    -    man                            way 'cross town,


G|------ ------ ------ ------|------ ------ ------ ------|
D|7----------7---------------|7----------7---------7-----|
A|--------------7------------|--------------7------------|
E|---------------------------|---------------------------|
                                     She's  good   to  me,


G|------ ------ ------ ------|------ ------ ------ ------|
D|9--------------------------|9----------9---------------|
A|--------------9------------|--------------9------------|
E|---------------------------|---------------------------|
                                            oh,        yeah!


G|------ ------ ------ ------|------ ------ ------ ------|
D|9----------9---------------|9----------9---------9-----|
A|--------------9------------|--------------9------------|
E|---------------------------|---------------------------|
                                     She    gives  me

Verse:
G|------ ------ ------ ------|------ ------ ------ ------|
D|---------------------------|---------------------------|
A|7--------------------------|7----------7---------------|
E|--------------7------------|--------------7------------|
  mo  -  ney                         every- time   I   need,


G|------ ------ ------ ------|------ ------ ------ ------|
D|---------------------------|-------4------5------6-----|
A|7----------7---------------|7--------------------------|
E|--------------7------------|---------------------------|
             yes,      you    know              She's  the


G|------ ------ ------ ------|------ ------ ------ ------|
D|7--------------------------|7----------7---------------|
A|--------------7------------|--------------7------------|
E|---------------------------|---------------------------|
  kind       of                             friend in- deed


G|------ ------ ------ ------|------ ------ ------ ------|
D|7----------7---------------|7----------7---------7-/-9-|
A|--------------7------------|--------------7------------|
E|---------------------------|---------------------------|
                                  I  say I      got    a


G|------ ------ ------ ------|------ ------ ------ ------|
D|---------------------------|---------------------------|
A|7------------------------6-/7------7------7------7-----|
E|--------------7------------|---------------------------|
  wo  -  man                                way 'cross


G|------ ------ ------ ------|------ ------ ------ ------|
D|9------------------------7-/9------7------7-\-6--------|
A|--------------9------------|---------------------9-----|
E|---------------------------|---------------------------|
  town,                              She's  good   for me


G|------ ------ ------ ------|------ ------ ------ ------|
D|---------------------------|7--------------------7-/-9-|
A|7--------------------------|--------------7------------|
E|--------------7------------|---------------------------|
                                         oh,       oh,


G|------ ------ ------ ------|------ ------ ------ ------|
D|---------------------------|---------------------7-/-9-|
A|7--------------------------|7--------------------------|
E|--------------7------------|-------7------7------------|
  yeah                               She    says   she'll

Refrain:
G|------ ------ ------ ------|------ ------ ------ ------|
D|---------------------------|---------------------------|
A|7--------------------------|7--------------------------|
E|--------------7------------|--------------7------------|
  love       me                             early  in  the


G|------ ------ ------ ------|------ ------ ------ ------|
D|9------------------------7-/9------7------7-\-6--------|
A|--------------9------------|---------------------9-----|
E|---------------------------|---------------------------|
  mor  - ning,                              Just   for


G|------ ------ ------ ------|------ ------ ------ ------|
D|---------------------------|7----------7---------------|
A|7--------------------------|--------------7------------|
E|--------------7------------|---------------------------|
  me,                                    oh,       oh,


G|------ ------ ------ ------|------ ------ ------ ------|
D|---------------------------|--------------5------6-----|
A|7--------------------------|7----------7---------------|
E|--------------7------------|---------------------------|
  yeah                               She    says   she'll


G|------ ------ ------ ------|------ ------ ------ ------|
D|7----------7---------------|7----------7-------------6-/
A|--------------7------------|--------------7------------|
E|---------------------------|---------------------------|
  love       me                          ear - ly  in  the


G|------ ------ ------ ------|------ ------ ------ ------|
D|7----------7---------------|7----------7---------7-----|
A|--------------7------------|--------------7------------|
E|---------------------------|---------------------------|
  mor  - ning,                              Just   for


G|------ ------ ------ ------|------ ------ ------ ------|
D|9----------9---------------|9----------9---------7-----|
A|--------------9------------|--------------9------------|
E|---------------------------|---------------------------|
  me,                                       oh,        yeah!


G|------ ------ ------ ------|------ ------ ------ ------|
D|9----------9-------------7-/9------9------9------9-----|
A|--------------9------------|---------------------------|
E|---------------------------|---------------------------|
                                     She    says   she'll

Verse:
G|------ ------ ------ ------|------ ------ ------ ------|
D|---------------------------|---------------------------|
A|7--------------------------|7--------------------------|
E|--------------7------------|--------------7------------|
  love       me,                         just   for


G|------ ------ ------ ------|------ ------ ------ ------|
D|---------------------------|--------------5------6-----|
A|7--------------------------|7------7-------------------|
E|--------------7------------|---------------------------|
  me,    yeah,         you    know,             She'll


G|------ ------ ------ ------|------ ------ ------ ------|
D|7--------------------------|7----------7---------6-----|
A|--------------7------------|--------------7------------|
E|---------------------------|---------------------------|
  love       me                      so     ten  - derly


G|------ ------ ------ ------|------ ------ ------ ------|
D|7--------------------------|7--------------------7-/-9-|
A|--------------7------------|--------------7------------|
E|---------------------------|---------------------------|
                                  I  say I      got    a


G|------ ------ ------ ------|------ ------ ------ ------|
D|---------------------------|---------------------------|
A|7--------------------------|7-------------7------------|
E|--------------7------------|---------------------------|
  wo    -    man                            way 'cross


G|------ ------ ------ ------|------ ------ ------ ------|
D|9--------------------------|7-/-9--7------6------------|
A|--------------9------------|---------------------9-----|
E|---------------------------|---------------------------|
  town                               She's  good   to  me,


G|------ ------ ------ ------|------ ------ ------ ------|
D|---------------------------|7--------------------7-/-9-|
A|7--------------------------|--------------7------------|
E|--------------7------------|---------------------------|
                                            oh,        yeah


G|------ ------ ------ ------|------ ------ ------ ------|
D|---------------------------|9------7------7-\-6--------|
A|7--------------------------|---------------------9-----|
E|--------------7------7-----|---------------------------|


Break (solo):
G|------ ------ ------ ------|------ ------ ------ ------|
D|-------6------7------8-----|9------7------7-\-6--------|
A|7--------------------------|---------------------9-----|
E|---------------------------|---------------------------|



G|------ ------ ------ ------|------ ------ ------ ------|
D|-------6------9------6-----|-------6------9------6-----|
A|7--------------------------|7--------------------------|
E|---------------------------|---------------------------|



G|------ ------ ------ ------|------ ------ ------ ------|
D|7--------------------------|7--------------------------|
A|--------------7------9-----|-------9------7------------|
E|-------9-------------------|---------------------9-----|



G|------ ------ ------ ------|------ ------ ------ ------|
D|-------6------9------6-----|-------4------5------6-----|
A|7--------------------------|7--------------------------|
E|---------------------------|---------------------------|



G|------ ------ ------ ------|------ ------ ------ ------|
D|7--------------------------|7--------------------------|
A|--------------7------9-----|-------9------7------------|
E|-------9-------------------|---------------------9-----|



G|------ ------ ------ ------|------ ------ ------ ------|
D|-------6------9------6-----|-------6------7------8-----|
A|7--------------------------|7--------------------------|
E|---------------------------|---------------------------|



G|------ ------ ------ ------|------ ------ ------ ------|
D|9------9------9------9-----|9------9------9------9-----|
A|---------------------------|---------------------------|
E|---------------------------|---------------------------|



G|------ ------ ------ ------|------ ------ ------ ------|
D|-------6------7------8-----|9------7------7-\-6--------|
A|7--------------------------|---------------------9-----|
E|---------------------------|---------------------------|


Bridge:
G|------ ------ ------ ------|------ ------ ------ ------|
D|---------------------------|---------------------9-----|
A|7--------------------------|---------------------------|
E|---------------------------|---------------------------|
         She's  there  to     love   me


G|------ ------ ------ ------|------ ------ ------ ------|
D|---------------------------|------------------7-/9-----|
A|7--------------------------|---------------------------|
E|---------------------------|---------------------------|
         all    day    and    night,


G|------ ------ ------ ------|------ ------ ------ ------|
D|---------------------------|------------------7--9-----|
A|7--------------------------|---------------------------|
E|---------------------------|---------------------------|
         Never  grumbles or   fusses,


G|------ ------ ------ ------|------ ------ ------ ------|
D|---------------------------|---------------------------|
A|7--------------------------|---------------------------|
E|---------------------------|---------------------------|
         just   treats me     right


G|------ ------ ------ ------|------ ------ ------ ------|
D|---------------------------|---------------------------|
A|7--------------------------|---------------------------|
E|---------------------------|---------------------------|
         Never  runnin' in the streets,


G|------ ------ ------ ------|------ ------ ------ ------|
D|---------------------------|---------------------------|
A|7--------------------------|---------------------------|
E|---------------------------|---------------------------|
         leaves me     a - lone,


G|------ ------ ------ ------|------ ------ ------ ------|
D|---------------------------|---------------------------|
A|7--------------------------|---------------------------|
E|---------------------------|---------------------------|
         She    knows     the woman's    place


G|9----- 9-\-7- ------ ------|------ ------ ------ ------|
D|--------------9------9-\-7-|---------------------------|
A|---------------------------|---------------------------|
E|---------------------------|5------4------2------0-----|
  right  back   there  with a-hangin 'round home   Got a

Refrain:
G|------ ------ ------ ------|------ ------ ------ ------|
D|7--------------------------|7----------7---------------|
A|---------------------7-----|---------------------7-----|
E|--------------9------------|--------------9------------|
  wo  -  man                                way 'cross town,


G|------ ------ ------ ------|------ ------ ------ ------|
D|9--------------------------|9--------------------------|
A|---------------------9-----|---------------------9-----|
E|-----------10/11-----------|-----------10/11-----------|
                                     She's  good   for me,


G|------ ------ ------ ------|------ ------ ------ ------|
D|---------------------------|7--------------------------|
A|7----------7---------7-----|--------------7------------|
E|--------------7------------|---------------------------|
                                         oh,           yeah!


G|------ ------ ------ ------|------ ------ ------ ------|
D|-----------5-/6------9-----|--------------5------6-----|
A|7--------------------------|7------7-------------------|
E|---------------------------|---------------------------|
                                     Well, I    got    a


G|------ ------ ------ ------|------ ------ ------ ------|
D|7--------------------------|7--------------------6-----|
A|--------------7------------|--------------7------------|
E|---------------------------|---------------------------|
  wo  -  man                                way 'cross town,


G|------ ------ ------ ------|------ ------ ------ ------|
D|7--------------------------|7--------------------7-----|
A|--------------7------------|--------------7------------|
E|---------------------------|---------------------------|
                                     She's  good   to  me,


G|------ ------ ------ ------|------ ------ ------ ------|
D|9--------------------------/9--------------------------|
A|--------------9------------|--------------9------------|
E|---------------------------|---------------------------|
                                            oh,        yeah!


G|------ ------ ------ ------|------ ------ ------ ------|
D|9------------------------7-/9------7------7-\-6--------|
A|--------------9------------|---------------------9-----|
E|---------------------------|---------------------------|
                                  Well,     she's my   ba-

Verse:
G|------ ------ ------ ------|------ ------ ------ ------|
D|---------------------------|---------------------------|
A|7--------------------------|7--------------------------|
E|--------------7------------|--------------7------------|
      by,                            'cause un  -  derstands
                                         she

G|------ ------ ------ ------|------ ------ ------ ------|
D|---------------------------|-------4------5------6-----|
A|7--------------------------|7--------------------------|
E|--------------7------------|---------------------------|
         I,         I,        I,         I,     I,     I'm,


G|------ ------ ------ ------|------ ------ ------ ------|
D|7--------------------------|7--------------------6-----|
A|--------------7------------|--------------7------------|
E|---------------------------|---------------------------|
                                     I'm her loving    man


G|------ ------ ------ ------|------ ------ ------ ------|
D|7--------------------------|7--------------------------|
A|--------------7------------|--------------7------------|
E|---------------------------|---------------------------|
                                  I  say I      got    a


G|------ ------ ------ ------|------ ------ ------ ------|
D|---------------------------|--------------6------7-----|
A|7--------------------------|7--------------------------|
E|--------------7------------|---------------------------|
  wo  -  man                                way 'cross town,


G|------ ------ ------ ------|------ ------ ------ ------|
D|9--------------------------|9------7------6------------|
A|--------------9------------|---------------------9-----|
E|---------------------------|---------------------------|
                                     She's  good   to  me,


G|------ ------ ------ ------|------ ------ ------ ------|
D|---------------------------|7--------------------7-/-9-|
A|7--------------------------|--------------7------------|
E|--------------7------6-----|---------------------------|
                                         oh,       oh,


G|------ ------ ------ ------|------ ------ ------ ------|
D|---------------------------/9------------/9------------|
A|7--------------------------|---------------------------|
E|--------------7------------|---------------------------|
  yeah                               Well,  much   all
                                         that   is
Outro:
G|------ ------ ------ ------|------ ------ ------ ------|
D|---------------------------|---------------------------|
A|7--------------------------|7--------------------------|
E|--------------7------------|--------------7------------|
  right,                             Well,  much   all
                                         that   is
                             (slow tempo)
G|------ ------ ------ ------|------ ------ ------ ------|
D|---------------------------|---------------------------|
A|7--------------------------|---------------------------|
E|---------------------------|---------------------------|
  right                                         I    got a


G|------ ------ ------ ------|------ ------ ------ --7-9-|
D|---------------------------|9-9-9--9-9-9--9-9-9--9-----|
A|9-9-9--9-9-9--9-9-9--9-9-9-|---------------------------|
E|---------------------------|---------------------------|
  woman             way 'cross town,            she's good to


G|------ ------ ------ ------|------ ------ ------ ------|
D|-------6-6-6--7-7-7--8-8-8-|9--------------------------|
A|7-7-7----------------------|-------5------7------------|
E|---------------------------|----7----------------------|
  me,           oh,    oh,    yeah!

Please e-mail me for any corrections, or write a comment.
comments
We did not receive enough feedback on this tab! Please rate:
print report bad tab
1 2 3 4 5
I want to post or [tab]
guest
You may want to rate the tab now too:
select rating
Please do not post tabs as comments. Select "correction" instead!