Oops, an error
Loading. Please wait.

I Got To Find My Baby Bass Tab

1,123 views 1 this week
no commentswrite comment
1 2 3 4 5
please rate
add to favorites
launch autoscroll
font size
0
reset
guitar tuner
Tab Pro tools
  • play this tab
  • loop segment
  • change instrument
  • show fretboard
  • metronome
×
Best way to learn
"I Got To Find My Baby"
Autoscroll
slow
fast
+/-
esc
set tempo
stop
Contributor
  -----------------------------------------------------------------

   THE BEATLES – I GOT TO FIND MY BABY (Chuck Berry) From LIVE AT
                 THE BBC album. Released on 1994.

  -----------------------------------------------------------------





    This Chuck Berry's cover was performed by The Beatles for 
    Pop Go The Beatles, programme two, broadcasted in the Light
    Programme between 5:00 and 5:29 pm on Tuesday 11 June 1963.
    They performed it one more time for Saturday Club transmitted
    between 10:00 am and 12:00 noon on Saturday 29 June 1963.





   I'm gonna search this town
   From door to door
   The love I crave
   I can't find no more

   I got to find my baby
   I declare there ain't no lie
   I ain't had no real good loving
   Since that woman said goodbye

   You know I hate to see the sun
   Sinking to the west
   Cos I know my whole life's
   Gonna be one solid mess

   I got to find my baby
   I declare there ain't no lie
   I ain't had no real good loving
   Since that woman said goodbye

   Well ever since the day
   That she said we were through
   I've been nervous
   And shook up too

   I got to find my baby
   I declare there ain't no lie
   I ain't had no real good loving
   Since that woman said goodbye

   Well I don't care if the last thing
   I ever done in my life
   Is to find that little woman
   Make her my wife

   I got to find my baby
   I declare there ain't no lie
   I ain't had no real good loving
   Since that woman said goodbye





    INTRO


  G|---------------------------------|---------------------------------|
  D|-5----5----5-----5----5----5-----|-5-------0-----------------------|
  A|---------------------------------|---------------------------------|
  E|---------------------------------|---------------------------------|





    VERSE


  G|-------------------------5----3--|-------------------------5----3--|
  D|-5--------------------5----------|-5--------------------5----------|
  A|---------------------------------|---------------------------------|
  E|---------------------------------|---------------------------------|





  G|---------------------------------|---------------------------------|
  D|-5-------------------------------|-5----5----5-----5----5----5-----|
  A|---------------------------------|---------------------------------|
  E|---------------------------------|---------------------------------|





    CHORUS


  G|---------------------------------|-5----5--2----2------------------|
  D|---------2-------5-------2----5--|-----------------5-------2-------|
  A|-3-------------------------------|---------------------------------|
  E|---------------------------------|---------------------------------|





  G|---------------------------------|---------------------------------|
  D|-5-------------------------------|-5----5--2-----------------------|
  A|---------2-------5-------2-------|-----------------5-------2-------|
  E|---------------------------------|---------------------------------|





  G|---------------------------------|---------------------------------|
  D|---------4-------7-------4-------|---------2-------5-------2-------|
  A|-5-------------------------------|-3-------------------------------|
  E|---------------------------------|---------------------------------|





  G|---------------------------------|-------------------------5-------|
  D|-5-------------------------------|----------------------5----------|
  A|---------2-------5-------2-------|-5-------5-------5---------------|
  E|---------------------------------|---------------------------------|





    VERSE


  G|-------------------------5----3--|-------------------------5----3--|
  D|-5--------------------5----------|-5--------------------5----------|
  A|---------------------------------|---------------------------------|
  E|---------------------------------|---------------------------------|





  G|---------------------------------|---------------------------------|
  D|-5-------------------------------|-5----5----5-----5----5----5-----|
  A|---------------------------------|---------------------------------|
  E|---------------------------------|---------------------------------|





    CHORUS


  G|---------------------------------|---------------------------------|
  D|---------2-------5-------2----5--|---------2-------5-------2----2--|
  A|-3-------------------------------|-3-------------------------------|
  E|---------------------------------|---------------------------------|





  G|---------------------------------|---------------------------------|
  D|-5-------------------------------|-5-------2-----------------------|
  A|---------2-------5-------2-------|-----------------5-------2----2--|
  E|---------------------------------|---------------------------------|





  G|---------------------------------|---------------------------------|
  D|---------4-------7-------4-------|---------------------------------|
  A|-5-------------------------------|-3-------3-------2-------0-------|
  E|---------------------------------|---------------------------------|





  G|---------------------------------|-------------------------5----3--|
  D|---------------------------------|----------------------5----------|
  A|---------2-------3-------4-------|-5-------5-------5---------------|
  E|-3-------------------------------|---------------------------------|





    VERSE


  G|-------------------------5----3--|-------------------------5----3--|
  D|-5--------------------5----------|-5--------------------5----------|
  A|---------------------------------|---------------------------------|
  E|---------------------------------|---------------------------------|





  G|---------------------------------|---------------------------------|
  D|-5-------------------------------|-5----5----5-----5----5----5-----|
  A|---------------------------------|---------------------------------|
  E|---------------------------------|---------------------------------|





    CHORUS


  G|---------------------------------|---------------------------------|
  D|---------2-------5-------2----5--|---------2-------5-------2-------|
  A|-3-------------------------------|-3----------------------------3--|
  E|---------------------------------|---------------------------------|





  G|---------------------------------|---------------------------------|
  D|-5-------5-----------------------|-5---------------0-------5-------|
  A|-----------------5-------2-------|---------2-----------------------|
  E|---------------------------------|---------------------------------|





  G|---------------------------------|---------------------------------|
  D|---------4-------7-------4-------|---------2-------3-------4-------|
  A|-5-------------------------------|-3-------------------------------|
  E|---------------------------------|---------------------------------|





  G|---------------------------------|---------------------------------|
  D|-5-------------------------------|-------------------------4-------|
  A|---------2-------3-------4-------|-5----5--5-------7---------------|
  E|---------------------------------|---------------------------------|





    HARP SOLO


  G|---------------------------------|---------------------------------|
  D|-5-----------------------4-------|-5-------2-----------------------|
  A|---------2-------5---------------|-----------------5-------5-------|
  E|---------------------------------|---------------------------------|





  G|---------------------------------|---------------------------------|
  D|-5---------------0-------4-------|-5----5--2-----------------------|
  A|---------2-----------------------|-----------------5-------2-------|
  E|---------------------------------|---------------------------------|





  G|-------------------------2-------|-5----5--2-----------------------|
  D|---------2-------5---------------|-----------------5-------2-------|
  A|-3-------------------------------|------------------------------3--|
  E|---------------------------------|---------------------------------|





  G|---------------------------------|---------------------------------|
  D|-5-----------------------4-------|-5----5--2-----------------------|
  A|---------2-------5---------------|-----------------5-------2-------|
  E|---------------------------------|---------------------------------|





  G|---------------------------------|---------------------------------|
  D|---------4-------7-------4-------|---------2-------3-------4-------|
  A|-5-------------------------------|-3-------------------------------|
  E|---------------------------------|---------------------------------|





  G|---------------------------------|---------7-----------------------|
  D|-5-------------------------------|-------------------------4-------|
  A|---------2-------3-------4-------|-5---------------7---------------|
  E|---------------------------------|---------------------------------|





    VERSE


  G|---------------------------------|---------------------------------|
  D|-5-------5-----------------------|-5-------5-----------------------|
  A|-----------------5-------2-------|-----------------5-------2-------|
  E|---------------------------------|---------------------------------|





  G|---------------------------------|---------------------------------|
  D|-5-------5-----------------------|-5----5----5-----5----5----5-----|
  A|-----------------5-------2-------|---------------------------------|
  E|---------------------------------|---------------------------------|





    CHORUS


  G|---------------------------------|-5-------2-----------------------|
  D|---------2-------5-------2-------|-----------------5-------2-------|
  A|-3-------------------------------|------------------------------3--|
  E|---------------------------------|---------------------------------|





  G|---------------------------------|---------------------------------|
  D|-5-------5-------7-------7-------|-9-------9-------8-------8-------|
  A|---------------------------------|---------------------------------|
  E|---------------------------------|---------------------------------|





  G|---------------------------------|---------------------------------|
  D|-7-------6-------4-------2-------|---------------------------------|
  A|---------------------------------|-3-------2-------0---------------|
  E|---------------------------------|-------------------------3-------|





  G|---------------------------------|---------------------------------|
  D|---------------------------------|---------3---4---5---------------|
  A|---------2-------3-------4-------|-5-----------------------3---4---|
  E|-3-------------------------------|---------------------------------|





  G|---------------------------------|---------------------------------|
  D|---------3---4---5---------------|---------------------------------|
  A|-5-------------------------------|---------------------------------|
  E|---------------------------------|-3-------------------------------|
comments
We did not receive enough feedback on this tab! Please rate:
print report bad tab
1 2 3 4 5
I want to post or [tab]
guest
You may want to rate the tab now too:
select rating
Please do not post tabs as comments. Select "correction" instead!