Oops, an error
Loading. Please wait.

I Me Mine tab

version 2
version 2

Whole song

Interactive

31,816 views 30 this week
no commentswrite comment
1 2 3 4 5
x 6
add to favorites
×
Save as Personal and add changes to this tab that will be seen only by you. Learn more ›
×
You can save this tab as Personal to edit and correct it or add notes. All changes will be seen only by you. Learn more »
launch autoscroll
font size
0
reset
how to read this tab
guitar tuner
backing track
0:00
0:00
edit
Autoscroll
slow
fast
+/-
esc
set tempo
stop
Once upon a time, or maybe twice; I was seeking for this song on the web, and I just got 
poor transcription and I didn't like it. One day I found this little one and I think 
great.

Well, there are 3 guitars in this transcription:
	#1  Electric Guitar W/Disto
	#2  Electric Guitar W/Disto
	#3  Acustic Guitar

You can strum the written chords or you can play them with a Keyboard.
There are also some blues riffs, but don't worry they're not difficult.
...Oh, and Beware, sometimes I wrote riffs from two different guitars on the same tab 
you will understand this when you see it.

NOTE: If you are going to copy this transcription, don't forget to give me the credits


INSTRUCTIONS

5~~  play fret five with vibrato
5/7  play fret five, slide up to fret seven
7/5  play fret seven, slide down to fret five
5b7  play fret five and bend the string to reach the pitch of fret seven
7r5  release string from bend done
5h7  hammer-on from fret five to fret seven
7p5  pull-off from fret seven to fret five
//5  slide up to fret five from undefined, judge by ear
5//  play fret five, slide down/up (depending) to undefined, judge by ear
(5)  play it almost unhearable

I, Me, Mine (George Harrison)

INTRO:

  Am                      D                        G           E

  Guitar #1 (w/disto)
|--------|------------------|----------|--8--10—--10b11--|--8—10--------|
|--------|------------------|-8-10-----|-----------------|--------10~~~~|
|--------|--------5h7--7/9--|----------|-----------------|--------------|
|--------|--5h7-------------|----------|-----------------|--------------|
|--------|------------------|----------|-----------------|--------------|
|--------|------------------|----------|-----------------|--------------|
| Guitar #2 (w/disto)       |          |                 |              |
|--------|------------------|----------|-----------------|--------------|
|--------|------------------|----------|-----------------|--------------|
|--------|------------------|----------|-----------------|--------------|
|--------|------------------|----------|-----------------|-(5)(7)-------|
|--5h7~~-|------------------|-----7p5--|--------5--------|--------(5)---|
|--5~~~~-|------------------|----------|8~~~~------2h3---|--------------|


VERSE:

Am               D
All through the day

      G	     E         Am
| Guitar #3                      || Guitar #2 (w/disto)                 |
|------------|------------|------||--------------|----------------------|
|------------|------------|------||--------------|----------------------|
|------------|------------|------||--------------|----------------------|
|------------|----------9—|7~~~--||--5/7-----10--|----------------------|
|----------5-|-7-9/11-----|------||--5/7---------|-7/5------------------|
|----3-5/7---|------------|------||--------------|--------8/10---5~~~~--|

I me mine, I me mine, I me mine

Am               D
All through the night

      G          E         Am
  Guitar #3
|------------|------------|------|
|------------|------------|------|
|------------|------------|------|
|------------|----------9—|-7~~~-|
|----------5-|-7-9/11-----|------|
|----3-5/7---|------------|------|

I me mine, I me mine, I me mine

PRE-CHORUS:

            Dm             Dm/E         Dm/F           D3
  Guitar #3
|---------|---------|-----------|--------------|---------|
|---------|---------|-----------|--------------|---------|
|---------|---------|-----------|--------------|---------|
|---------|---------|-----------|--------------|---5-----|
|---------|---5-----|---------7-|--------8-----|---------|
|---------|---------|-----------|--------------|---------|

Now they're frightened of leaving it, Everyone's reading it

E          Esus4         Esus6
  Guitar #3
|---------|---------|--------|
|---------|---------|--------|
|---------|---------|--------|
|--6------|-7-------|------9-|
|---------|---------|--------|
|---------|---------|--------|

Coming on strong all the time


Am   AmMaj7     Am7  D9     Fmaj7
| Guitar #3                       || Guitar #1                  |
|---|---------|----|---|----------||----------------------------|
|---|---------|----|---|----------||----------------------------|
|---|---------|----|---|----------||----------------------------|
|-7-|-6-------|--5-|-4-|------3---||-------/-10-10-10--10-10-//-|
|---|---------|----|---|----------||-------/-8--8--8---8--8--//-|
|---|---------|----|---|----------||----------------------------|

All through the day;  I, me, mine...

CHORUS:

    Am
  Guitar #1 (w/disto)
|-----------|----------------------|-----------|------------------------|
|-----------|----------------------|-----------|------------------------|
|-----------|----------------------|-----------|------------------------|
|-----------|-----------7-----7----|-----------|-------------7-----7----|
|77-99-77-99|-77--99--9---7h9---7--|77-99-77-99|-7-7—-9-9--9---7h9---7--|
|55-55-55-55|-55--55---------------|55-55-55-55|-5-5—-5-5---------------|
| Guitar #2 (w/disto)              |           |                        |
|-----------|---55---55---55-------|-----------|---55---55---55---------|
|-----------|---55---55---55-------|-----------|---55---55---55---------|
|-----------|7b8--7b8--7b8--7b8r7-5|-----------|7b8--7b8--7b8--7b8r7-5--|
|-----------|----------------------|-----------|-----------------------7|
|-----------|----------------------|-----------|------------------------|
|-----------|----------------------|-----------|------------------------|

    I  me me  mine                  I  me me  mine

   Dm						Am
  Guitar #1 (w/disto)
|-----------|--------------------|-----------|----------------------|
|-----------|--------------------|-----------|----------------------|
|-----------|--------------------|-----------|----------------------|
|77-99-77-99|7-9p7-7-9p7-7-9p7-77|-----------|------------7-----7---|
|55-55-55-55|5—----5-----5-----55|77-99-77-99|-77--99---9---7h9---7-|
|-----------|--------------------|55-55-55-55|-55--55---------------|
| Guitar #2 (w/disto)            |           |                      |
|-----------|--888—-888--888—-8//|-----------|---55---55------------|
|-----------|--666--666--666— 6//|-----------|---55---55------------|
|-----------|--------------------|-----------|7b8--7b8--7b8r7-5-7-5-|
|-----------|--------------------|-----------|----------------------|
|-----------|--------------------|-----------|----------------------|
|-----------|--------------------|-----------|----------------------|

    I  me me  mine                   I  me me  mine

   E7
  Guitar #1 (w/disto)
|--------------------|-------------------------|
|--------------------|-------------------------|
|--------------------|-------------------------|
|--------------------|----------//-9----9—-9//-|
|-2-2--4-4--2-2--4-4-|-2-2--4-4-//-7----7—-7//-|
|-0-0--0-0--0-0--0-0-|-0-0--0-0----------------|
| Guitar #2 (w/disto)|                         |
|--------------5-----|-------------------------|
|----------------8p5-|---------5---------------|
|-7b9----------------|-7—--5-7------7p5--------|
|--------------------|-------------------7~~~--|
|--------------------|-------------------------|
|--------------------|-------------------------|


VERSE:

Am          D
  Guitar #2 (w/disto)			   * 	  (This last note has to be
|---|-------|-------------|---------|----|  played with the other one
|---|-------|-------------|---------|----|  signed)
|---|-------|------5------|---------|----|
|---|-------|-5/7--5—-7/5-|---------|----|
|---|-------|-5/7-----7/5—|-3h5~~/7-|----|
|---|-------|-------------|---------|-3~~|
                                      *
All  I can hear

      G	     E         Am
  Guitar #3
|------------|------------|---------|----------|------|
|------------|------------|---------|----------|------|
|------------|------------|---------|----------|------|
|------------|----------9—|7~~~-----|----------|------|
|----------5-|-7-9/11-----|------7--|--------7-|------|
|----3-5/7---|------------|---------|-8--10----|-5~~--|
     * (I mean this one)
I me mine, I me mine, I me mine

Am          D
Even those tears

      G          E         Am
  Guitar #3
|------------|------------|---------|----------|
|------------|------------|---------|----------|
|------------|------------|---------|----------|
|------------|----------9—|7~~~-----|----------|
|----------5-|-7-9/11-----|------7--|--------7-|
|----3-5/7---|------------|---------|-8--10----|

I me mine, I me mine, I me mine


PRE-CHORUS: (Play it just as you played it the last before)

CHORUS: (Play it just as you played it the last before)


VERSE: (Play it just as you played it the last before)

(Lyrics)
All I can hear
I me mine, I me mine, I me mine
Even those tears
I me mine, I me mine, I me mine


PRE-CHORUS: (Play it just as you played it the last before but change the last part for 
one)

Am   AmMaj7     Am7  D9     Fmaj7
  Guitar #3
|---|---------|----|---|----------|
|---|---------|----|---|----------|
|---|---------|----|---|----------|
|-7-|-6-------|--5-|-4-|------3---|
|---|---------|----|---|----------|
|---|---------|----|---|----------|

All through the life; I, me, mine...


CHORD DEFINITION:

D       XX0232
Dm      XX0231
Dm/E    XX2231
Dm/F    XX3231
D3      XX0031
E       022100
Esus4   022200
Esus6   022X00  or  022400
E7      020100
Fmaj7   XX3210
G       320011
Am      X02210  or  577555
AmMaj7  X02110  or  576555
Am7     X02010  or  575555
D9      X04210  or  5X455X

George Harrison, this song is something magical, but also realistic song about feelings 
the last days of Beatles. This was the last known Beatles song ever taped. I love it, 
in peace, George.

            
            
Suggest correction
Creating personal tab
Creating personal tab
You can edit any tab online and save it as your Personal.

You can edit, replace or remove any tab part or add personal notes – all changes will be seen only by you.

Personal tabs can be accessed anytime from any device, even offline.
Learn more »
comments
print report bad tab
guest
Wanna post a correction for this tab? Suggest correction