Oops, an error
Loading. Please wait.

I Remember You Bass Tab

231 views 1 this week
no commentswrite comment
1 2 3 4 5
please rate
add to favorites
launch autoscroll
font size
0
reset
guitar tuner
Tab Pro tools
  • play this tab
  • loop segment
  • change instrument
  • show fretboard
  • metronome
Autoscroll
slow
fast
+/-
esc
set tempo
stop
Contributor
+++++++++++++++++++++++++++++++
| The Beatles- I Remember You |
+++++++++++++++++++++++++++++++


"I remember too a distant bell..."


Beatles Live in Hamburg '62
here's the audio:

http://www.youtube.com/watch?v=g7urv0tC2Kk

Tuning: EADG


Intro
1.
G|-------|
D|-------|
A|-------|
E|-0-2-4-|

Pre-Chorus
"Tell them I remember you..."
2.
G|-------------------------------|
D|-7~---7---------7~----7~-------|
A|----7-------7~-----7~----0-2-4-|
E|--------7~---------------------|

Chorus
"I remember too a distant bell..."
3.
G|-----------------------------------------------------------|
D|----7------6---4~---4----6---4~--------4-3-2-2-2-2-2-6-4-6-|
A|-5~---5-4~---4----4---4~---4----4-3-2~---------------------|
E|-----------------------------------------------------------|

Verse
"When my life is through..."
4.
G|------------------------------------------------------|
D|-7~---7-6~---6-7~----7-6-4-2----7~----7---7~----7~----|
A|----7------6------7~---------5~----5~---5----7~----7~-|
E|------------------------------------------------------|

Pre-Chorus
"Then I will tell them I remember you..."
5.
G|-------------------------------|
D|-7~---7---------7~----7~-------|
A|----7-------7~-----7~----0-2-4-|
E|--------7~---------------------|

Chorus
"I remember too a distant bell..."
6.
G|-----------------------------------------------------------|
D|----7------6---4~---4----6---4~--------4-3-2-2-2-2-2-6-4-6-|
A|-5~---5-4~---4----4---4~---4----4-3-2~---------------------|
E|-----------------------------------------------------------|

Verse
"When my life is through..."
7.
G|------------------------------------------------------|
D|-7~---7-6~---6-7~----7-6-4-2----7~----7---7~----7~----|
A|----7------6------7~---------5~----5~---5----7~----7~-|
E|------------------------------------------------------|

Pre-Chorus
"Then I will tell them I remember you..."
8.
G|-------------------------------|
D|-7~---7---------7~----7~-------|
A|----7-------7~-----7~----0-2-4-|
E|--------7~---------------------|

Chorus
"I remember too a distant bell..."
9.
G|-----------------------------------------------------------|
D|----7------6---4~---4----6---4~--------4-3-2-2-2-2-2-6-4-6-|
A|-5~---5-4~---4----4---4~---4----4-3-2~---------------------|
E|-----------------------------------------------------------|

Verse
"When my life is through..."
10.
G|------------------------------------------------------|
D|-7~---7-6~---6-7~----7-6-4-2----7~----7---7~----7~----|
A|----7------6------7~---------5~----5~---5----7~----7~-|
E|------------------------------------------------------|

Outro
"Then I will tell them I remember you..."
11.
G|----------------------------------------------------|
D|-7~---7------------5-------5~-----3~----3-8-7~---7~-|
A|----7-------7~--3~---3-5~------1~----1~--------7----|
E|--------7~------------------------------------------|

Please rate thanks!


Lyrics:


Tell them I remember you

I remember too a distant bell
And stars that dwell
Like the rain out of the blue

When my life is through
And the angels ask me to recall
The thrill of it all
Then I will tell them
I remember you



+++++++++++
| Raileff |
+++++++++++
comments
We did not receive enough feedback on this tab! Please rate:
print report bad tab
1 2 3 4 5
I want to post or [tab]
guest
You may want to rate the tab now too:
select rating
Please do not post tabs as comments. Select "correction" instead!