Oops, an error
Loading. Please wait.

I Wanna Be Your Man Bass Tab

version 2
version 2

Whole song

Interactive

5,534 views 9 this week
no commentswrite comment
1 2 3 4 5
excellent!
x 3
add to favorites
launch autoscroll
font size
0
reset
guitar tuner
Tab Pro tools
  • play this tab
  • loop segment
  • change instrument
  • show fretboard
  • metronome
Autoscroll
slow
fast
+/-
esc
set tempo
stop
Contributor
I Wanna Be Your Man
The Beatles
Written by John Lennon and Paul McCartney; released on "With The Beatles"
album.

Great rock and roll, Ringo sang the lead vocal. The song was also recorded
by The Rolling Stones.

Intro:
G|------- ------- ------- -------|------- ------- ------- -------|
D|-------------------------------|-------------------------------|
A|-------------------------------|-------------------------------|
E|-------------------------------|-------------------------------|


Verse:
G|------- ------- ------- -------|------- ------- ------- -------|
D|-------------------------------|-------------------------------|
A|7-----------------------5------|7-----------------------5------|
E|----------------7--------------|----------------7--------------|
  I       wanna   be      your    lo- ver,    ba    -     by,


G|------- ------- ------- -------|------- ------- ------- -------|
D|-------------------------------|-------------------------------|
A|7-----------------------5------|7-----------------------5------|
E|----------------7--------------|------------7---7--------------|
  I       wanna   be  your    man,


G|------- ------- ------- -------|------- ------- ------- -------|
D|-------------------------------|-------------------------------|
A|7-----------7-----------5------|7-----------------------5------|
E|----------------7--------------|----------------7--------------|
  I       wanna   be      your    lo- ver,    ba    -     by,


G|------- ------- ------- -------|------- ------- ------- -------|
D|-------------------------------|-------------------------------|
A|7------------------------------|7-----------------------5------|
E|----------------7-------7------|------------7------------------|
  I       wanna   be  your    man


G|------- ------- ------- -------|------- ------- ------- -------|
D|-------------------------------|-------------------------------|
A|7-----------------------5------|7-----------------------5------|
E|----------------7--------------|------------7---7--------------|
  Love    you     like    no      o - ther,   ba    -     by,


G|------- ------- ------- -------|------- ------- ------- -------|
D|-------------------------------|-------------------------------|
A|7-----------------------5------|7-----------------------5------|
E|------------7---7--------------|------------7------------------|
  like    no      o - ther    can,


G|------- ------- ------- -------|------- ------- ------- -------|
D|-------------------------------|-------------------------------|
A|7-----------------------5------|7-----------7-----------5------|
E|----------------7--------------|----------------7--------------|
  Love    you     like    no      o - ther,   ba    -     by,


G|------- ------- ------- -------|------- ------- ------- -------|
D|-------------------------------|-------------------------------|
A|7------------------------------|7-------7----------------------|
E|----------------7-------7------|----------------7-------7------|
  like    no      o - ther    can


G|------- ------- ------- -------|
D|-------------------------------|
A|7------------------------------|
E|-------------------------------|
      I   wanna   be  your    man,

Refrain:
G|------- ------- ------- -------|------- ------- ------- -------|
D|-------------------------------|-------------------------------|
A|9-------9-------9-------9------|-------------------------------|
E|-------------------------------|7-------7-------7-------7------|
                                      I   wanna   be  your    man,


G|------- ------- ------- -------|------- ------- ------- -------|
D|-------------------------------|-------------------------------|
A|7-------7-------7-------7------|-------------------------------|
E|-------------------------------|9-------9-------9-------9------|
                                      I   wanna   be  your    man,


G|------- ------- ------- -------|------- ------- ------- -------|
D|-------------------------------|-------------------------------|
A|9-------9-------9-------9------|-------------------------------|
E|-------------------------------|7-------7-------7-------7------|
                                      I   wanna   be  your


G|------- ------- ------- -------|------- ------- ------- -------|
D|-------------------------------|-------------------------------|
A|7------------------------------|-------------------------------|
E|-------------------------------|-------------------------------|
  man

Verse:
G|------- ------- ------- -------|------- ------- ------- -------|
D|-------------------------------|-------------------------------|
A|7-----------------------5------|7-------7---------------5------|
E|----------------7--------------|----------------7--------------|
  Tell    me      that    you     love me,    ba    -     by,


G|------- ------- ------- -------|------- ------- ------- -------|
D|-------------------------------|-------------------------------|
A|7-----------------------5------|7-----------------------5------|
E|----------------7--------------|------------7---7--------------|
  let     me      un- der  -  stand,


G|------- ------- ------- -------|------- ------- ------- -------|
D|-------------------------------|-------------------------------|
A|7-----------------------5------|7-----------------------5------|
E|----------------7--------------|----------------7--------------|
  Tell    me      that    you     love me,    ba    -     by,


G|------- ------- ------- -------|------- ------- ------- -------|
D|-------------------------------|-------------------------------|
A|7------------------------------|7-------7---------------5---7--|
E|----------------7-------7------|----------------7--------------|
  I       wanna   be  your    man


G|------- ------- ------- -------|------- ------- ------- -------|
D|-------------------------------|-------------------------------|
A|7-----------------------5------|7-----------------------5------|
E|----------------7--------------|------------7---7--------------|
  I       wanna   be      your    lo- ver,    ba    -     by,


G|------- ------- ------- -------|------- ------- ------- -------|
D|-------------------------------|-------------------------------|
A|7-----------------------5------|7-----------------------5------|
E|----------------7--------------|----------------7--------------|
  I       wanna   be  your    man,


G|------- ------- ------- -------|------- ------- ------- -------|
D|-------------------------------|-------------------------------|
A|7-------7---------------5------|7-----------------------5------|
E|----------------7--------------|----------------7--------------|
  I       wanna   be      your    lo- ver,    ba    -     by,


G|------- ------- ------- -------|------- ------- ------- -------|
D|-------------------------------|-------------------------------|
A|7-------7----------------------|7-------7---------------5------|
E|----------------7-------7------|----------------7--------------|
  I       wanna   be  your    man


G|------- ------- ------- -------|
D|-------------------------------|
A|7------------------------------|
E|-------------------------------|
      I   wanna   be  your    man,

Refrain:
G|------- ------- ------- -------|------- ------- ------- -------|
D|-------------------------------|-------------------------------|
A|9---9---9---9---9---9---9------|-------------------------------|
E|-------------------------------|7-------7-------7-------7------|
                                      I   wanna   be  your    man,


G|------- ------- ------- -------|------- ------- ------- -------|
D|-------------------------------|-------------------------------|
A|7-------7-------7-------7------|-------------------------------|
E|-------------------------------|9-------9---9---9-------9------|
                                      I   wanna   be  your    man,


G|------- ------- ------- -------|------- ------- ------- -------|
D|-------------------------------|-------------------------------|
A|9-------9-------9-------9------|-------------------------------|
E|-------------------------------|7-------7-------7-------7------|
                                      I   wanna   be  your


G|------- ------- ------- -------|------- ------- ------- -------|
D|-------------------------------|-------------------------------|
A|7------------------------------|-------------------------------|
E|-------------------------------|-------------------------------|
  man

Break (solo):
G|------- ------- ------- -------|------- ------- ------- -------|
D|-------------------------------|-------------------------------|
A|7-------7----------------------|7-------7---------------5------|
E|----------------7-------7------|----------------7--------------|



G|------- ------- ------- -------|------- ------- ------- -------|
D|-------------------------------|-------------------------------|
A|7-------7-------------------5--|7-------7---------------5------|
E|----------------7-------7------|----------------7--------------|



G|------- ------- ------- -------|------- ------- ------- -------|
D|-------------------------------|-------------------------------|
A|7-------7---------------5------|7-------7---------------5------|
E|----------------7--------------|----------------7--------------|



G|------- ------- ------- -------|------- ------- ------- -------|
D|-------------------------------|-------------------------------|
A|7-------7---------------5------|7-------7---------------5---7--|
E|----------------7--------------|------------7---7--------------|



G|------- ------- ------- -------|------- ------- ------- -------|
D|-------------------------------|-------------------------------|
A|7-------7----------------------|7-------7---------------5------|
E|----------------7-------7------|----------------7--------------|



G|------- ------- ------- -------|------- ------- ------- -------|
D|-------------------------------|-------------------------------|
A|7-------7----------------------|7-------7----------------------|
E|----------------7-------7------|----------------7-------7------|


Verse:
G|------- ------- ------- -------|------- ------- ------- -------|
D|-------------------------------|-------------------------------|
A|7-------7----------------------|7-------7---------------5---7--|
E|----------------7-------7------|----------------7--------------|
  I       wanna   be      your    lo- ver,    ba    -     by,


G|------- ------- ------- -------|------- ------- ------- -------|
D|-------------------------------|-------------------------------|
A|7-------7----------------------|7-------7----------------------|
E|----------------7-------7------|----------------7-------7------|
  I       wanna   be  your    man,


G|------- ------- ------- -------|------- ------- ------- -------|
D|-------------------------------|-------------------------------|
A|7-------7----------------------|7-------7---------------5------|
E|----------------7---7---7------|----------------7--------------|
  I       wanna   be      your    lo- ver,    ba    -     by,


G|------- ------- ------- -------|------- ------- ------- -------|
D|-------------------------------|-------------------------------|
A|7-------7----------------------|7-------7---------------5------|
E|----------------7-------7------|----------------7---7----------|
  I       wanna   be  your    man


G|------- ------- ------- -------|------- ------- ------- -------|
D|-------------------------------|-------------------------------|
A|7-------7----------------------|7-------7---------------5------|
E|----------------7-------7------|----------------7--------------|
  Love    you     like    no      o - ther,   ba    -     by,


G|------- ------- ------- -------|------- ------- ------- -------|
D|-------------------------------|-------------------------------|
A|7-------7----------------------|7-------7---------------5------|
E|----------------7-------7------|----------------7--------------|
  like    no      o - ther    can,


G|------- ------- ------- -------|------- ------- ------- -------|
D|-------------------------------|-------------------------------|
A|7-------7----------------------|7-------7---------------5------|
E|----------------7-------7------|----------------7--------------|
  Love    you     like    no      o - ther,   ba    -     by,


G|------- ------- ------- -------|------- ------- ------- -------|
D|-------------------------------|-------------------------------|
A|7-------7----------------------|7-------7----------------------|
E|----------------7-------7------|----------------7-------7------|
  like    no      o - ther    can


G|------- ------- ------- -------|
D|-------------------------------|
A|7------------------------------|
E|-------------------------------|
      I   wanna   be  your    man,

Refrain:
G|------- ------- ------- -------|------- ------- ------- -------|
D|-------------------------------|-------------------------------|
A|9-------9-------9-------9------|-------------------------------|
E|-------------------------------|7-------7-------7-------7------|
                                      I   wanna   be  your    man,


G|------- ------- ------- -------|------- ------- ------- -------|
D|-------------------------------|-------------------------------|
A|7-------7-------7-------7------|-------------------------------|
E|-------------------------------|9-------9-------9-------9------|
                                      I   wanna   be  your    man,


G|------- ------- ------- -------|------- ------- ------- -------|
D|-------------------------------|-------------------------------|
A|9-------9-------9-------9------|-------------------------------|
E|-------------------------------|7-------7-------7-------7------|
                                      I   wanna   be  your


G|------- ------- ------- -------|------- ------- ------- -------|
D|-------------------------------|-------------------------------|
A|7------------------------------|-------------------------------|
E|-------------------------------|-------------------------------|
  man

Outro:
G|------- ------- ------- -------|------- ------- ------- -------|
D|-------------------------------|-------------------------------|
A|7------------------------------|7-------7-------------------5--|
E|----------------7--------------|----------------7-------7------|
                                      I   wanna   be  your    man,


G|------- ------- ------- -------|------- ------- ------- -------|
D|-------------------------------|-------------------------------|
A|7-------7----------------------|7-------7----------------------|
E|----------------7-------7------|----------------7-------7------|
                                      I   wanna   be  your    man,
repeat and fade...

Please e-mail me for any corrections, or write a comment.
comments
We did not receive enough feedback on this tab! Please rate:
print report bad tab
1 2 3 4 5
I want to post or [tab]
guest
You may want to rate the tab now too:
select rating
Please do not post tabs as comments. Select "correction" instead!