Oops, an error
Loading. Please wait.
We have an official I Want You Shes So Heavy tab made by UG professional guitarists. Check out the tab »
×

I Want You Shes So Heavy intro tab

532 views 30 this week
no commentswrite comment
1 2 3 4 5
x 4
add to favorites
×
Save as Personal and add changes to this tab that will be seen only by you. Learn more ›
×
You can save this tab as Personal to edit and correct it or add notes. All changes will be seen only by you. Learn more »
launch autoscroll
font size
0
reset
how to read this tab
guitar tuner
backing track
0:00
0:00
edit
Autoscroll
slow
fast
+/-
esc
set tempo
stop
About this tab version
Fingestyle tab including left-hand fingering. Was this info helpful? Yes No
Hello there. This is a fingerstyle tab of "I Want You (She's So Heavy)" by The Beatles. I find this
fingerstyle is quite useful when playing with guitar and vocals only.

The numbers above the tab indicate left hand fingerings, because they get quite complicated.
1 = Index
2 = Middle
3 = Ring
4 = Pinky
T = Thumb, but we won't be using it for this tab.

[Intro]

         1       3     2   3   3 barre       barre-|
     3 4 2 4 3   2 1 4 1 4 2   2 1 4 1 3 2   1 1 4 1 3       2 3 1
e|-------1-----|-------------|-------1-----|-------1-----|-------1-----|
B|-----3---3---|-----3-6-----|-----3-------|-----3-------|-----2-------|
G|---2-------2-|---2-----7---|---1---------|---1---------|---2---------|
D|-0-----------|-3---------7-|-2-----------|-----------0-|-------------|
A|-------------|-------------|---------3-2-|-1-------3---|-0-----------|
D|-0-----2-----|-3-----5---7-|-2-----------|-------------|-------------|

This can also be played in the chorus, with the connection being:

         1       3     2   4   3 barre       barre-|
     3 4 2 4 3   2 1 4 1 4 2   2 1 4 1 3 2   1 1 4 1 3       2 3 1 4 1
e|-------1-----|-------------|-------1-----|-------1-----|-------1-----|
B|-----3---3---|-----3-6-----|-----3-------|-----3-------|-----2-------|
G|---2-------2-|---2-----7---|---1---------|---1---------|---2---------|
D|-0-----------|-3---------7-|-2-----------|-----------0-|-------------|
A|-------------|-------------|---------3-2-|-1-------3---|-0-----------|
D|-0-----2-----|-3-----5---7-|-2-----------|-------------|---------3-2-|

I would have also posted a fingerstyle for the verse, but I don't think there's any purpose in that.
So that's it!
Suggest correction
Creating personal tab
Creating personal tab
You can edit any tab online and save it as your Personal.

You can edit, replace or remove any tab part or add personal notes – all changes will be seen only by you.

Personal tabs can be accessed anytime from any device, even offline.
Learn more »
comments
print report bad tab
guest
You may want to rate the tab now too:
select rating
Wanna post a correction for this tab? Suggest correction