Oops, an error
Loading. Please wait.
We have an official I Want You Shes So Heavy tab made by UG professional guitarists. Check out the tab »
×

I Want You Shes So Heavy bass

version 3
version 3

Whole song

  • Transcribed from the original isolated bass track.
  • Full version, written after intense listen-through... Show more
229 views 30 this week
no commentswrite comment
1 2 3 4 5
x 5
add to favorites
×
Save as Personal and add changes to this tab that will be seen only by you. Learn more ›
×
You can save this tab as Personal to edit and correct it or add notes. All changes will be seen only by you. Learn more »
launch autoscroll
font size
0
reset
guitar tuner
backing track
0:00
0:00
edit
Autoscroll
slow
fast
+/-
esc
set tempo
stop
Author
Difficulty
About this tab version
Transcribed from the original isolated bass track. Was this info helpful? Yes No
I Want You (She’s So Heavy)

Intro
G|-------------------------------------|
D|----------5---7-------------------7~-|
A|-5--7--8--------7---/-------3-5-0----|
E|---------------------8-7-6-----------|

Verse
G|-999-|-9999-|-999-|-------------------------------------|
D|-777-|-7777-|-777-|----------3--5-6-7-------------------|
A|-----|------|-----|-0--3--5-------------/7-0---00-3-0-4-|
E|-----|------|-----|-------------------------------------|

G|----7v-|-------11-10---|---/777-|---(14)/12-10---|
D|-------|------------12-|--------|-------------12-|
A|-5-----|-555-----------|-5------|-5--------------|
E|-------|---------------|--------|----------------|

G|----/7-|----10b(11)r-7-|---------------------|
D|-------|---------------|----3----------------|
A|-5-----|-5-------------|-5-----3--1----5-6-7-|
E|-------|---------------|---------------------|

G|---------------------9-7--|-----------------------9-7--|---------------|
D|--------------------9---7-|----------------------9---9-|----------/14/-|
A|---77777777-10-9-8-7------|-7-777777777-10-9-8--7------|-77777777------|
E|-0------------------------|----------^^----------------|---------------|
                                Quick double hit
Verse
G|-------------------|--------------5b(6)r---|
D|-7-----------------|-7-----------7-------7-|
A|------5/7/-0----/7-|------5/7/-0-----------|
E|-------------------|-----------------------|

G|-------------------|-------5b(6)r--|-------------------------------------|
D|--------/777-------|-------------7-|-----3-3-5-06-07---77----------------|
A|-0---/7---------/7-|-000-----------|-5-5------------------7---0-00-3-0-4-|
E|-------------------|---------------|-------------------------------------|

G|----7v-|-----10b(11)r---|----7v-|-----10----|----7v-|-----10b(11)r---|
D|-------|-------------12-|-------|--------12-|-------|-------------12-|
A|-5-----|-555------------|-5-----|-555-------|-5-----|-555------------|
E|-------|----------------|-------|-----------|-------|----------------|

G|---------------------|
D|----3----------------|
A|-5-----3--1----5-6-7-|
E|---------------------|

G|---------------------9-7--|-----------------------9-7--|---------------|
D|--------------------9---7-|----------------------9---9-|------/141414/-|
A|-----777777-10-9-8-7------|-7-777777777-10-9-8--7------|-77777---------|
E|-000----------------------|----------^^----------------|---------------|

Refrain
G|------------------------------------------|
D|----------5---7--/xxx/--------------7-----|
A|-5--7--8--------7------------3-5-0----4-7-|
E|----------------------8-7-6---------------|

G|------------------------------------------|
D|----------5---7--/xxx/------------------7-|
A|-5--7--8--------7------------3-5-0--4-7---|
E|----------------------8-7-6---------------|

Guitar Solo
G|--------------------------------------------------------------------------|
D|------5-5h7-------5-5-5h7-----------------5-5-5h7-----------------5-5-5h7-|
A|-0—5/7-------0—5/7---------0---7--7--0-5/7---------0---7—-7—-0-5/7--------|
E|--------------------------------------------------------------------------|

G|---------------------------------------------------------|
D|-------------------3---3-2-------/77-7777-777------------|
A|-0---0-3---3-5---5----------3/-0-------------000-3-4-(5)-|
E|---------------------------------------------------------|

G|-----777---------77-5------777-----11b-11b-------777---|
D|----7----5/7----7----7---/7----7----------12---/7----7-|
A|-5----------5----------5--------5------------5---------|
E|-------------------------------------------------------|

G|---------77----------------------------|
D|------6/7---------3---3----------------|
A|-5-55-------5---5-------3---3-1/-5-6-7-|
E|---------------------------------------|

G|---------------------9-7--|-----------------------97---|-----------|
D|--------------------9---7-|----------------------9---9-|-----------|
A|------77777-10-9-8-7------|-7-777777777-10-9-8--7------|-7-7-77777-|
E|-0000----^^---------------|----------^^----------------|---0-00000-|

Refrain
G|--------------------------------------------5-7—-7/-|
D|----------5---7-----x/------------------7-8---------|
A|-5--7--8--------7-----------1-3-5-0-4-7-------------|
E|----------------------8-7-6-------------------------|

G|-7/----------------------------------------|
D|----------5---7----x/--------------------7-|
A|----7--8--------7------------1-3-5-0-------|
E|----------------------8-7-6----------------|

Verse
G|------------------------------------------------|
D|-------5-5h7------------------5-5-7-------------|
A|-0--5/7------0---7—-7/--0--5/7-------000-7-0-7/-|
E|------------------------------------------------|

G|--------------------------------------------------------------------------|
D|-------5-5h7------5-5h7------------3-3-2---------5-5-5h7---19x/x/x/x/x/x/-|
A|-0--5/7------0---7-7----0--3-3-5-5-------3-0--/7---------0----------------|
E|--------------------------------------------------------------------------|

G|---777-------777-------777-----------------|
D|------5/7-------5/7-------5/7---19//////7--|
A|-5-------5-5-------5-5-------5-5---------5-|
E|-------------------------------------------|

G|---777------777---------------------------|
D|--7---/7---7---/7------3-3----------------|
A|-5------5-5------5---5-----3-3-1-1--5-6-7-|
E|------------------------------------------|

G|---------------------9-7--|-----------------------97---|---------------|
D|--------------------9---7-|----------------------9---9-|----------/14/-|
A|----7777777-10-9-8-7------|-7-777777777-10-9-8--7------|-7-7-77777-----|
E|-00-----------------------|---0000000^^----------------|---0-00000-----|

Outro
G|-------------------------------------------|
D|----------5---7---xxx/-----------------x/--|
A|-5--7--8--------7------------3-3-5-0-----0-|
E|----------------------8-7-6----------------|

G|----------------------------------------------|
D|----------5---7---xxx/---------------xxxxxxx/-|
A|-5--7--8--------7--------------3-5-0----------|
E|----------------------8-7-6--66---------------|

G|----------------------------------|--------------------------------------|
D|----------555/7-------------777---|----------555/7--------------xxxxxxx/-|
A|-555777888-----7777------350---03-|-555777888-----7xxx/------350---------|
E|-------------------876666---------|--------------------876666------------|

G|---------------------------------------|
D|--------x/-555/7-x/-----x/-----xxx\----|
A|-5557778--8-----7--77-------350----003-|
E|---------------------876--66-----------|

G|-------------------------------------------------|
D|----------5---7---x/-x/----x/-x/-----------------|
A|-5--7--8--------7----------------3-5-0-0-0-0-0-0-|
E|----------------------8-7-6----------------------|

G|-----------------------------------------------|
D|----------555/7-x/x/x/------x/x/------7-7--7-7-|
A|-555777888-----7----------------3-5-0-----0-0--|
E|----------------------8-7-6--------------------|

G|----------------------999/--------------------6-9-|
D|--7-7-7-7-----5-5-7-------------------------7-----|
A|-5-5-7-7-88-88------7-------------3-5-0-4-7-------|
E|--------------------------8-7-6666----------------|

G|-777/9v--9-10--10-12---14\9--99-----------------------------|
D|-----------------------------------------------/7---x/x/x/x-|
A|---------------------------------------3-5-0------0---------|
E|-------------------------------8-7-6666---------------------|

G|-----------------------------------------------------|
D|--------xx/-55-7---xxxx/----/xxxxx-------xxxxxxxxxx/-|
A|-5557778--------7------------------3-5-0-------------|
E|-----------------------8-7-6-------------------------|

G|-------------------------------------------------|
D|----------555/7--xxx/-----/xxxxx-----------77777-|
A|-555777888-----7-----------------3-5-0-0-0-------|
E|---------------------8-7-6------5----------------|

G|---7/--/7/--/7--------/12/-/10/-----/7/-/7/--------------|
D|---------------5-5-7-----------------------------77---7--|
A|-55--77---88--------7-----7----------------3-5-0----0--0-|
E|-------------------------------8-7-6---6------------------|

G|------------------999--------------------5-7-/10-|
D|----------5---7------------888-------7-7---------|
A|-5--7--8--------7--------------3-5-0-------------|
E|---------------------8-7-6-----------------------|

G|-777------------/9-/9-/9-------------------5-|
D|----------555/7----------8-8-------7---7-----|
A|----777888-----7--7--7-------3-5-0---0---0---|
E|------------------------6-6------------------|

G|-777-99-99-1010-1010-1212-14-99-99-9/---------------|
D|----------------------------------------------------|
A|----------------------------------------------3-5-0-|
E|-------------------------------------8-7-6666-------|

(Paul McCartney)

************************************

| ~    Vibrato
| /    Slide up
| h    Hammer-on
| (n)  Ghost note
| b    Bend
| \    Slide down
 

************************************

            
            
Suggest correction
Creating personal tab
Creating personal tab
You can edit any tab online and save it as your Personal.

You can edit, replace or remove any tab part or add personal notes – all changes will be seen only by you.

Personal tabs can be accessed anytime from any device, even offline.
Learn more »
comments
print report bad tab
guest
You may want to rate the tab now too:
select rating
Wanna post a correction for this tab? Suggest correction