Oops, an error
Loading. Please wait.

I Will Tab

version 4
version 4

Interactive

67,233 views 126 this week
1 commentread comment
1 2 3 4 5
excellent!
x 6
add to favorites
launch autoscroll
font size
0
reset
how to read this tab
guitar tuner
Tab Pro tools
  • play this tab
  • loop segment
  • change instrument
  • show fretboard
  • metronome
×
Best way to learn
"I Will"
Autoscroll
slow
fast
+/-
esc
set tempo
stop
Contributor
    --------------------------------------------------------------

    THE BEATLES - I WILL (Lennon & McCartney) From the WHITE ALBUM
                  Released on November the 22nd of 1968.

    --------------------------------------------------------------

    Tabbed by:PJVillanueva







    Who knows how long I've loved you
    You know I love you still
    Will I wait a lonely lifetime
    If you want me to  I will.

    For if I ever saw you
    I didn't catch your name 
    But it never really mattered
    I will always feel the same.

    Love you forever and forever
    Love you with all my heart
    Love you whenever we're together
    Love you when we're apart.

    And when at last I find you 
    Your song will fill the air
    Sing it loud so I can hear you
    Make it easy to be near you
    For the things you do endear you to me
    Oh you know I will
    I will.
    Mmmmmmmmmmm mmmmmmmmmmm
    Dadadadadadaaa daaaaaah


                                                            Who knows



    F               Dm              Gm7             C7                       
  e|1---1-- 1------ 1---1-- 1------|3---3-- 3------ 0---0-- 0------|
  B|1---1---1---0---3---3---3---x--|6---6---6----x--1---1---1---x--|
  G|2---2---2---0---2---2---2---x--|3---3---3----x--3---3---3---x--|
  D|3---3---3---0---0---0---0---x--|5---5---5----x--2---2---2---x--|
  A|3---3---3----------------------|5---5---5-------3---3---3------|
  E|1---1---1----------------------|3---3---3----------------------|
            how long        I've        you                 You know
                                loved


    F           Dm              Am                  F7
  e|1---1-- 1---1-- 1---1-- 1---0--|0---0-- 0------ 1---1-- 1---1--|
  B|1---1---1---3---3---3---3---1--|1---1---1---0---4---4---4---3--|
  G|2---2---2---2---2---2---2---2--|2---2---2---0---2---2---2---3--|
  D|3---3---3-------0---0---0---2--|2---2---2---0---x---x---x---3--|
  A|3---3---3-------------------0--|0---0---0-------3---3---3---1--|
  E|1---1---1----------------------|----------------1---1---1------|
            I   love        you still               Will    I   wait



    Bb          C   C7          Dm              Dm7             Bb
  e|1---1-- 1---0-- 0---0-- 0---1--|1---1-- 1---1-- 1---1-- 1---1--|
  B|3---3---3---1---1---1---1---3--|3---3---3---1---1---1---1---3--|
  G|3---3---3---0---3---3---3---2--|2---2---2---2---2---2---2---3--|
  D|3---3---3-------2---2---2------|0---0---0-------------------3--|
  A|1---1---1-------3---3---3------|----------------------------1--|
  E|-------------------------------|-------------------------------|
            a   lonely          lifetime                If  you want 


 
                C   C7
  e|1---1-- 1---0-- 0---0-- 0---1--|
  B|3---3---3---1---1---1---1---1--|
  G|3---3---3---0---3---3---3---2--|
  D|3---3---3-------2---2---2---3--|
  A|1---1---1-------3---3---3---3--|
  E|----------------------------1--|
            me  to          I   will.




  e|1---1-- 1---1-- ----1-- 1------|3---3-- 3------ 0---0-- 0------|
  B|1---1---1---3-------3---3------|6---6---6-------1---1---1------|
  G|2---2---2---2-------2---2------|3---3---3-------3---3---3------|
  D|3---3---3---0-------0---0------|5---5---5-------2---2---2------|
  A|3---3---3----------------------|5---5---5-------3---3---3------|
  E|1---1---1----------------------|3---3---3----------------------|

  e|---1--- ------- 1------ -------|---1--- ------- 1------ -------|
  B|----------3-----------3---1----|----------3-----------3---1----|
  G|------------2---------------1H2|------------3---------------1H2|
  D|-------------------------------|-------------------------------|
  A|-------------------------------|-------------------------------|
  E|-------------------------------|-------------------------------|
                                                            For If


    00:22

  e|1---1-- 1---1-- ----1-- 1------|3---3-- 3------ 0---0-- 0---1--|  
  B|1---1---1---3-------3---3------|6---6---6-------1---1---1---1--|
  G|2---2---2---2-------2---2------|3---3---3---3---3---3---3---2--|
  D|3---3---3---0-------0---0------|5---5---5---5---2---2---2---3--|
  A|3---3---3----------------------|5---5---5---5---3---3---3---3--|
  E|1---1---1----------------------|3---3---3-------------------1--|

  e|------- ------- ------- -------|------- ------- ------- -------|
  B|-------------------------------|-------------------------------|
  G|-------------------------------|-------------------------------|
  D|3------------------------------|-------------------------------|
  A|-------------------------------|-------------------------------|
  E|-------------------------------|-------------------------------|
            I   ever            saw     you                 I   didn't 




  e|1---1-- 1---1-- 1---1-- 1---0--|----0-- 0------ 1---1-- 1---1--|  
  B|1---1---1---3---3---3---3---1--|----1---1---0---4---4---4---3--|  
  G|2---2---2---2---2---2---2---2--|----2---2---0---2---2---2---3--|
  D|3---3---3---0---0---0---0---2--|----2---2---0---x---x---x---3--|
  A|3---3---3-------------------0--|----0---0-------3---3---3---1--|
  E|1---1---1----------------------|----------------1---1---1------|
                catch       your                    but it never 
                                name



  e|1---1-- 1---0-- 0---0-- 0---1--|1---1-- ----1-- 1---1-- 1------|
  B|3---3---3---1---1---1---1---3--|3---3-------1---1---1---1------|
  G|3---3---3---0---3---3---3---2--|2---2-------2---2---2---2------|
  D|3---3---3-------2---2---2------|0---0-------0---0---0---0------|
  A|1---1---1-------3---3---3------|-------------------------------|
  E|-------------------------------|-------------------------------|
                really          mattered                I   will  
                                                                always




  e|1---1-- 1---0-- 0---0-- 0---1--|1---1-- 1---1-- 1------ 1------|
  B|3---3---3---1---1---1---1---1--|1---1---1---1---4-------4------|
  G|3---3---3---3---3---3---3---2--|2---2---2---2---2-------2------|
  D|3---3---3-------2---2---2---3--|3---3---3---3---3-------3------|
  A|1---1---1-------3---3---3---3--|3---3---3---3---3-------3------|
  E|----------------------------1--|1---1---1---1---1-------1------|

  e|------- ------- ------- -------|----1-- ------- ------- -------|
  B|-------------------------------|----------1-----4-----3---1----|
  G|-------------------------------|------------2---------------1H2|
  D|-------------------------------|-------------------------------|
  A|-------------------------------|-------------------------------|
  E|-------------------------------|-------------------------------|
                feel        the same.



    00:40
    Bb              Am              Dm                          Gm
  e|1------ 1------ 0---0-- 0------|1------ 1---1-- ----1-- 1------|
  B|3-------3-------1---1---1------|3-------3---3-------3---3------|
  G|3-------3-------2---2---2------|2-------2---2-------2---2---3--|
  D|3-------3-------2---2---2------|0-------0---0-------0---0---5--|
  A|1-------1-------0---0---0------|----------------------------5--|
  E|-------------------------------|-------------------------------|

  e|------- ------- ------- -------|------- ------- 0------ 1------|
  B|-------------------------------|3------------------------------|
  G|3---------------2--------------|-------------------------------|
  D|-------------------------------|-------------------------------|
  A|-------------------------------|-------------------------------|
  E|-------------------------------|-------------------------------|
    Love   forever              and         forever
        you


                    C7              F
  e|3---3-- 3------ 0---0-- ----0--|1---1-- 1---1-- 1---1-- 1------|
  B|3---3---3-------1---1-------1--|1---1---1---1---1---1---1------|
  G|3---3---3-------3---3-------3--|2---2---2---2---2---2---2------|
  D|5---5---5-------2---2-------2--|3---3---3---3---3---3---3------|
  A|5---5---5-------3---3-------3--|3---3---3---3---3---3---3------|
  E|3---3---3----------------------|1---1---1---1---1---1---1------|

  e|------- ------- ------- -------|----1-- ------- ------- -------|
  B|----------------2--------------|----------1-----4-----3---1----|
  G|3------------------------------|------------2---------------1H2|
  D|-------------------------------|-------------------------------|
  A|-------------------------------|-------------------------------|
  E|-------------------------------|-------------------------------|
    love    with        my      heart
        you     all


    Bb              Am          Dm
  e|1---1-- 1------ 0---0-- 0---1--|----1-- 1---1-- ----1-- 1------|
  B|3---3---3-------1---1---1---3--|----3---3---3-------3---3------|
  G|3---3---3-------2---2---2---2--|----2---2---2-------2---2------|
  D|3---3---3-------2---2---2---0--|----0---0---0-------0---0------|
  A|1---1---1-------0---0---0------|-------------------------------|
  E|-------------------------------|-------------------------------|

  e|------- ------- ------- -------|------- ------- 0------ 1------|
  B|-------------------------------|3------------------------------|
  G|3---------------2--------------|-------------------------------|
  D|-------------------------------|-------------------------------|
  A|-------------------------------|-------------------------------|
  E|-------------------------------|-------------------------------|
    Love    whenever            we're       together
        you


    G                               C7
  e|3---3-- 3---3-- ----3-- 3------|0---0-- 0---0-- 0---0-- 0------|
  B|3---3---3---3-------3---3------|1---1---1---1---1---1---1------|
  G|4---4---4---4-------4---4------|3---3---3---3---3---3---3---0--|
  D|5---5---5---5-------5---5------|2---2---2---2---2---2---2---0--|
  A|5---5---5---5-------5---5------|3---3---3---3---3---3---3---0--|
  E|3---3---3---3-------3---3------|-------------------------------|

  e|------- ------- 3------ ----8--|8-\-6-- 6-\-5-- 5-\-3-- 3-\-1--|  
  B|-------------------------------|-------------------------------|
  G|4------------------------------|9-\-7---7-\-5---5-\-3---3-\-2--|
  D|-------------------------------|-------------------------------|
  A|-------------------------------|-------------------------------|
  E|-------------------------------|-------------------------------|
    love    when        apart                               And when
        you     we're



    00:59

  e|1---1-- 1---1-- ----1-- 1------|3---3-- 3------ 0---0-- 0------| 
  B|1---1---1---3-------3---3------|6---6---6-------1---1---1---x--|
  G|2---2---2---2-------2---2------|3---3---3-------3---3---3---x--|
  D|3---3---3---0-------0---0------|5---5---5-------2---2---2---x--|
  A|3---3---3----------------------|5---5---5-------3---3---3------|
  E|1---1---1----------------------|3---3---3----------------------|

  e|1------ ------- ------- -------|------- ------- ------- -------|
  B|-------------------------------|-------------------------------|
  G|2------------------------------|-------------------------------|
  D|-------------------------------|-------------------------------|
  A|-------------------------------|-------------------------------|
  E|-------------------------------|-------------------------------|
           at  last        I   find    you                 Your  
                                                                song



  e|1---1-- 1---1-- 1---1-- 1---0--|----0-- 0---1-- 1---1-- 1---1--|
  B|1---1---1---3---3---3---3---1--|----1---1---1---1---1---1---3--|
  G|2---2---2---2---2---2---2---2--|----2---2---2---2---2---2---3--|
  D|3---3---3---0---0---0---0---2--|----2---2---3---3---3---3---3--|
  A|3---3---3-------------------0--|----0---0---3---3---3---3---1--|
  E|1---1---1----------------------|------------1---1---1---1------|
            will            the air                 Sing    it  loud 
                fill



  e|----1-- 1------ 0---0-- 0------|1------ ------- ------- -------|
  B|----3---3-------1---1---1------|3-------2-------1--------------|
  G|----3---3-------3---3---3------|2-------3-------2--------------|
  D|----3---3-------2---2---2------|0-------3-------3--------------|
  A|----1---1-------3---3---3------|-------------------------------|
  E|-------------------------------|-------------------------------|

  e|------- ------- ------- -------|------- ------- ------- -------|
  B|-------------------------------|-------------------------------|
  G|-------------------------------|--------3-------2--------------|
  D|-------------------------------|-------------------------------|
  A|-------------------------------|--------4-------3--------------|
  E|-------------------------------|-------------------------------|
            so  I           can hear    you             Make    easy
                                                            it



  e|1---1-- 1---0-- ----0-- 0------|1------ ------- ------- -------|
  B|3---3---3---1-------1---1------|3-------2-------1--------------|
  G|3---3---3---3-------3---3------|2-------3-------2--------------|
  D|3---3---3---2-------2---2------|0-------3-------3--------------|
  A|1---1---1---3-------3---3------|-------------------------------|
  E|-------------------------------|-------------------------------|

  e|------- ------- ------- -------|------- ------- ------- -------|
  B|-------------------------------|-------------------------------|
  G|-------------------------------|--------3-------2--------------|
  D|-------------------------------|-------------------------------|
  A|-------------------------------|--------4-------3--------------|
  E|-------------------------------|-------------------------------|
                to          be  near    you            For  the things




  e|1---1-- 1---0-- ----0-- 0------|1------ ------- ------- -------|
  B|3---3---3---1-------1---1------|3-------2-------1--------------|
  G|3---3---3---3-------3---3------|2-------3-------2-------2------|
  D|3---3---3---2-------2---2------|0-------3-------3-------3------|
  A|1---1---1---3-------3---3------|------------------------3------|
  E|-------------------------------|-------------------------------|

  e|------- ------- ------- -------|------- ------- ------- -------|
  B|-------------------------------|-------------------------------|
  G|-------------------------------|--------3-------2--------------|
  D|-------------------------------|------------------------3------|
  A|-------------------------------|--------4-------3-------2------|
  E|-------------------------------|-------------------------------|
            you do          endear      you     to      me      oh




  e|3---3-- 3------ 0---0-- 0------|
  B|3---3---3-------1---1---1------|
  G|3---3---3-------3---3---3------|
  D|5---5---5-------2---2---2------|
  A|5---5---5-------3---3---3------|
  E|3---3---3----------------------|

  e|------- ------- ----5-- -------|
  B|-------------------------------|
  G|----------------5--------------|
  D|-------------------------------|
  A|-------------------------------|
  E|-------------------------------|
            you know        I   will



    01:24

  e|4---4-- 4---4-- 4---4-- 4---4--|4---4-- 4---4-- 4---4-- 4------|
  B|6---6---6---6---6---6---6---6--|6---6---6---6---6---6---6------|
  G|6---6---6---6---6---6---6---6--|6---6---6---6---6---6---6------|
  D|6---6---6---6---6---6---6---6--|6---6---6---6---6---6---6------|
  A|4---4---4---4---4---4---4---4--|4---4---4---4---4---4---4------|
  E|-------------------------------|-------------------------------|

  e|----1-- ------- 1------ -------|----1-- ------- 1------ -------|
  B|----------4P2---------4---2----|---------4------------4---2----|
  G|----------------------------1--|-----------1----------------1--|
  D|-------------------------------|-------------------------------|
  A|-------------------------------|-------------------------------|
  E|-------------------------------|-------------------------------|
                                                        I       will




  e|1------ 1---1-- 1---1-- 1---1--|1------ 1---1-- 1---1-- 1------|
  B|1-------1---1---1---1---1---1--|1-------1---1---1---1---1------|
  G|2-------2---2---2---2---2---2--|2-------2---2---2---2---2------|
  D|3-------3---3---3---3---3---3--|3-------3---3---3---3---3------|
  A|3-------3---3---3---3---3---3--|3-------3---3---3---3---3------|
  E|1-------1---1---1---1---1---1--|1-------1---1---1---1---1------|

  e|---1--- ------- 1------ -------|---1--- ------- 1------ -------|
  B|-----------3----------3---1----|-----------3----------4---3--1-|
  G|-------------2--------------1H2|-------------2-----------------|
  D|-------------------------------|-------------------------------|
  A|-------------------------------|-------------------------------|
  E|-------------------------------|-------------------------------|



    01:34

  e|1---1-- 1------ 0---0-- 0------|1------ 1---1-- ----1-- 1------|
  B|3---3---3-------1---1---1------|3-------3---3-------3---3------|
  G|3---3---3-------2---2---2------|2-------2---2-------2---2------|
  D|3---3---3-------2---2---2------|0-------0---0-------0---0------|
  A|1---1---1-------0---0---0------|-------------------------------|
  E|-------------------------------|-------------------------------|

  e|------- ------- ------- -------|------- ----0-- ------- 1------|
  B|-------------------------------|3------------------------------|
  G|3---------------2--------------|-------------------------------|
  D|-------------------------------|-------------------------------|
  A|-------------------------------|-------------------------------|
  E|-------------------------------|-------------------------------|
    Mmmmmmmmmmmmmmmmmmmmmm      mmmmmmmmmmmmmmmmmmmmmmmmmmm


                                   (.

  e|3---3-- 3---0-- 0---0-- 0---0--|0------ ------- ------- -------|
  B|3---3---3---1---1---1---1---1--|1------------------------------|
  G|3---3---3---3---3---3---3---3--|2------------------------------|
  D|5---5---5---2---2---2---2---2--|3------------------------------|
  A|5---5---5---3---3---3---3---3--|3------------------------------|
  E|3---3---3----------------------|1------------------------------|

  e|------- ------- ------- -------|5------ ------- ------- -------|
  B|----------------1--------------|5------------------------------|
  G|3------------------------------|5------------------------------|
  D|-------------------------------|3------------------------------|
  A|-------------------------------|3------------------------------|
  E|-------------------------------|-------------------------------|
    Da  da  da  da  da  daaaaah daaaaaaaaaaaaaaaaah









        B  Bend
        R  Release
        /  Slide up
        \  Slide down
        H  Hammer-on
        P  Pull-off
        ~  Vibrato
        +  Harmonic
        x  Mute note
        .  Play note like a dot in standard notation
        ^  Ties two notes together
        (. Pause




comments
print report bad tab
1 comment total.
0 reply
docdmento wrote on July 7 2014, 10:53 am

Thanks again, PJ.

I want to post or [tab]
guest
You may want to rate the tab now too:
select rating
Please do not post tabs as comments. Select "correction" instead!