Oops, an error
Loading. Please wait.

I Will Tab

version 6
version 6

Interactive

13,093 views 6 this week
no commentswrite comment
1 2 3 4 5
excellent!
x 5
add to favorites
launch autoscroll
font size
0
reset
how to read this tab
guitar tuner
Tab Pro tools
  • play this tab
  • loop segment
  • change instrument
  • show fretboard
  • metronome
×
Best way to learn
"I Will"
Autoscroll
slow
fast
+/-
esc
set tempo
stop
Contributor
Difficulty
advanced
The Beatles-I Will
Tabbed by John Martin

This is my version of the Beatles song I Will from The White Album(1968). It uses an NC 
style. This means that you use your thumb for the three low strings (E-A-D) your index 
on the G, middle on the B, and ring on the high e.
The basic two patterns use in the song are below.

   C-Pattern 1
E|--0---------------0--------------|]
B|----------1---------------1------|]
G|------0-------0-------0-------0--|]
D|----------2---------------2------|]
A|--3---------------3--------------|]
E|---------------------------------|]

   C-Pattern 2
E|----------0---------------0------|]
B|--1---------------1--------------|]
G|------0-------0-------0-------0--|]
D|----------2---------------2------|]
A|--3---------------3--------------|]
E|---------------------------------|]

Intro
   C                Am

E|----------0-------0--------------|]
B|--1-----------------------1------|]
G|------0-------0-------2-------2--|]
D|----------2---------------2------|]
A|--3---------------0--------------|]
E|---------------------------------|]


   Dm7              G7                C               Am
                            Who       knows   how     long    Ive
E|----------1-------1--------------|----------3-------0--------------]
B|--1-----------------------0------|--1-----------------------1------]
G|------2-------2-------0-------0--|------0-------0-------2-------2--]
D|--0-----------------------0------|----------2---------------2------]
A|----------0----------------------|--3---------------0--------------]
E|------------------3--------------|---------------------------------]

   Dm               G7                C               Am
    loved   you?            Did ya    know    I       love    you
E|----------1-------1--------------|----------3-------0--------------]
B|--3-----------------------0------|--1-----------------------1------]
G|------2-------2-------0-------0--|------0-------0-------2-------2--]
D|--0-----------------------0------|----------2---------------2------]
A|----------0----------------------|--3---------------0--------------]
E|------------------3--------------|---------------------------------]

   Em                                 C               F
    still?                            Will    I       wait    a
E|--3-----------3---------------3--|----------8----------------------]
B|----------0---------------0------|--8---------------10-------------]
G|------0---------------0----------|------9-------9-----------10-----]
D|----------2---------------2------|----------10----------10------10-]
A|---------------------------------|------------------8--------------]
E|--0---------------0--------------|--8------------------------------]

   G                C                 C               F
   lone     ly      life    time?     If      you     want    me
E|----------3-------0--------------|----------8----------------------]
B|--3-----------------------1------|--8---------------10-------------]
G|------0-------0-------0-------0--|------9-------9-----------10-----]
D|----------0---------------2------|----------10----------10------10-]
A|------------------3--------------|------------------8--------------]
E|--3------------------------------|--8------------------------------]

   G                C                 Am              Dm7
   to           I   will.
E|--------------------------0------|----------0---------------1------]
B|--3-----------0---1--------------|--1---------------1--------------]
G|------0---------------0-------0--|------2-------2-------2-------2--]
D|----------0---------------2------|----------2-------0--------------]
A|------------------3--------------|--0-----------------------0------]
E|--3------------------------------|---------------------------------]

    G7                                C               C7
            For (Repeat)
E|--1--------------|]             E|--0-----------------------0------]
B|----------0------|]             B|----------1-------1--------------]
G|------0-------0--|]             G|------0-------0-------3-------3--]
D|----------0------|]             D|----------2---------------2------]
A|-----------------|]             A|--3---------------3--------------]
E|--3--------------|]             E|---------------------------------]

Bridge
   F                G                 Am              C
   Love you for     ev      er        and     for     ev      er.
E|--1---0---1-------3-------5------|--0-----------------------0------]
B|---------------------------------|----------1-------3--------------]
G|--------------2-------0-------0--|------2-------2-------0-------0--]
D|----------3----------------------|----------2---------------2------]
A|---------------------------------|--0---------------3--------------]
E|--1---------------3-------3------|---------------------------------]

   F                G                 C               C7
   Love you with    all     my        heart.
E|--1---0---1-------3-------3------|--0-----------------------0------]
B|---------------------------------|----------1-------1--------------]
G|--------------2-------0-------0--|------0-------0-------3-------3--]
D|----------3---------------0------|----------2---------------2------]
A|---------------------------------|--3---------------3--------------]
E|--1---------------3--------------|---------------------------------]

   F                G                 Am              Am
   Love you when    ev      er        were    to      ge      ther.
E|--1---0---1-------3-------5------|--0-----------------------0------]
B|---------------------------------|----------1-------3--------------]
G|--------------2-------0-------0--|------2-------2-------2-------2--]
D|----------3---------------0------|----------2---------------2------]
A|---------------------------------|--0---------------0--------------]
E|--1---------------3--------------|---------------------------------]

   Dm                                 G               G7
   Love ya  when    were    a         part.                    And
E|----------0-------1-------3------|--3---------------1--------------]
B|--3------------------------------|----------0---------------0------]
G|------2-------2-------2-------2--|------0-------0-------0-------0--]
D|--0---------------0--------------|----------0---------------0------]
A|----------0---------------0------|---------------------------------]
E|---------------------------------|--3---------------3--------------]

Additional lyrics

For if I ever saw you
I didnt catch your name
But it never really mattered
I will always feel the same.

And when at last I find you
Your song will fill the air
Sing it loud so I can hear you
Make it easy to be near you
For the things you do endear you to me
Oh, you know, I will
I will.
comments
print report bad tab
I want to post or [tab]
guest
You may want to rate the tab now too:
select rating
Please do not post tabs as comments. Select "correction" instead!