Oops, an error
Loading. Please wait.

If I Needed Someone Tab

version 3
version 3

Whole song

Interactive

9,723 views 6 this week
no commentswrite comment
1 2 3 4 5
please rate
add to favorites
launch autoscroll
font size
0
reset
how to read this tab
guitar tuner
Tab Pro tools
  • play this tab
  • loop segment
  • change instrument
  • show fretboard
  • metronome
×
Best way to learn
"If I Needed Someone"
Autoscroll
slow
fast
+/-
esc
set tempo
stop
Contributor
Capo
7th fret
IF I NEEDED SOMEONE

    Use a capo on the 7th fret


  INTRO


                                                                 A
e|---------------------0-----------|-----3-------2-------0-----------|
B|-----3-------1---------------1---|-----------------------------1---|
G|---------2---------------2-------|---------2---------------2-------|
D|-0---------------0---------------|-0---------------0---------------|
A|---------------------------------|---------------------------------|
E|---------------------------------|---------------------------------|

e|---------------------0-----------|-----3-------2-------0-----------|
B|-----3-------1---------------1---|-----------------------------1---|
G|---------2---------------2-------|---------2---------------2-------|
D|-0---------------0---------------|-0---------------0---------------|
A|---------------------------------|---------------------------------|
E|---------------------------------|---------------------------------|

  VERSE


   A
e|-------------0-------2-------3---|-----2-------0-------2-----------|
B|-----3---------------------------|-----------------------------3---|
G|---------2---------------2-------|---------2---------------2-------|
D|-0---------------0---------------|-0---------------0---------------|
A|---------------------------------|---------------------------------|
E|---------------------------------|---------------------------------|
   If  I       needed          someone           to      love


e|-------------0-------2-------0---|-----2-------3-------2-------0---|
B|-----3---------------------------|------------------------------1--|
G|---------2---------------2-------|---------2---------------2-----0-|
D|-0---------------0---------------|-0---------------0---------------|
A|---------------------------------|---------------------------------|
E|---------------------------------|---------------------------------|
 You're the    one     that    I'd       be      thinking        of

   G
e|---------------------------------|---------------------------------|
B|-----1-------1---1---1---1-------|-----1---1-------1---1-----------|
G|-----0-------0---0---0---0-------|-----0---0-------0---0-----------|
D|-----0-------0---0---0---0-------|-----0---0-------0---0-----------|
A|---------------------------------|---------------------------------|
E|---------------------------------|---------------------------------|
                                     If  I       needed          someone

   A
e|---------------------0-----------|-----3-------2-------0-----------|
B|-----3-------1---------------1---|-----------------------------1---|
G|---------2---------------2-------|---------2---------------2-------|
D|-0---------------0---------------|-0---------------0---------------|
A|---------------------------------|---------------------------------|
E|---------------------------------|---------------------------------|

  VERSE

e|-------------0-------2-------3---|-----2-------0-------2-----------|
B|-----3---------------------------|-----------------------------3---|
G|---------2---------------2-------|---------2---------------2-------|
D|-0---------------0---------------|-0---------------0---------------|
A|---------------------------------|---------------------------------|
E|---------------------------------|---------------------------------|
   If  I       had     some    more      time    to      spend


e|-------------0-------2-------0---|-----2-------3-------2-------0---|
B|-----3---------------------------|------------------------------1--|
G|---------2---------------2-------|---------2---------------2-----0-|
D|-0---------------0---------------|-0---------------0---------------|
A|---------------------------------|---------------------------------|
E|---------------------------------|---------------------------------|
  Then I       guess   I'd     be        with    you     my      friend

   G
e|---------------------------------|---------------------------------|
B|-----1-------1---1---1-----------|-1-----------1---1---1-----------|
G|-----0-------0---0---0-----------|-0-----------0---0---0-----------|
D|-----0-------0---0---0-----------|-0-----------0---0---0-----------|
A|---------------------------------|---------------------------------|
E|---------------------------------|---------------------------------|
                                     If  I       needed          someone

   A
e|---------------------0-----------|-----3-------2-------0-----------|
B|-----3-------1---------------1---|-----------------------------1---|
G|---------2---------------2-------|---------2---------------2-------|
D|-0---------------0---------------|-0---------------0---------------|
A|---------------------------------|---------------------------------|
E|---------------------------------|---------------------------------|

  BRIDGE


   Em                                F#7
e|---------------------------------|---------------------------------|
B|-1---1-------1-------1-------1---|-4---4-------4-------4-------4---|
G|-2---2-------2-------2-------2---|-2---2-------2-------2-------2---|
D|-2---2-------2-------2-------2---|-4---4-------4-------4-------4---|
A|-3---3-------3-------3-------3---|-2---2-------2-------2-------2---|
E|---------------------------------|---------------------------------|
   Had you     come    some    other             day     then

                                     Bm
e|---------------------------------|---------------------------------|
B|-4-----------4-------4-------4---|-0---0-------0-------0-----------|
G|-2-----------2-------2-------2---|-0---0-------0-------0-----------|
D|-4-----------4-------4-------4---|-2---2-------2-------2-----------|
A|-2-----------2-------2-------2---|-2---2-------2-------2-----------|
E|---------------------------------|---------------------------------|
   it  may     not     have    been      like    this

   Em                                F#7
e|---------------------------------|---------------------------------|
B|-----1-------1-------1-------1---|-----4-------4-------4-------4---|
G|-----2-------2-------2-------2---|-----2-------2-------2-------2---|
D|-----2-------2-------2-------2---|-----4-------4-------4-------4---|
A|-----3-------3-------3-------3---|-----2-------2-------2-------2---|
E|---------------------------------|---------------------------------|
   But you     see     now     I'm       too     much    in      love

   Bm                                E
e|---------------------------------|---------------------------------|
B|-0---0-------0-------0-------0---|-----2-------3-------2-------0---|
G|-0---0-------0-------0-------0---|---------------------------------|
D|-2---2-------2-------2-------2---|---------2---------------2-------|
A|-2---2-------2-------2-------2---|-0---------------0---------------|
E|---------------------------------|---------------------------------|

  VERSE


   A
e|-------------0-------2-------3---|-----2-------0-------2-----------|
B|-----3---------------------------|-----------------------------3---|
G|---------2---------------2-------|---------2---------------2-------|
D|-0---------------0---------------|-0---------------0---------------|
A|---------------------------------|---------------------------------|
E|---------------------------------|---------------------------------|
 Carve your    number          on        my      wall    and


e|-------------0-------2-------0---|-----2-------3-------2-------0---|
B|-----3---------------------------|------------------------------1--|
G|---------2---------------2-------|---------2---------------2-----0-|
D|-0---------------0---------------|-0---------------0---------------|
A|---------------------------------|---------------------------------|
E|---------------------------------|---------------------------------|
   maybe       you     will    get       a       call    from    me

   G
e|---------------------------------|---------------------------------|
B|-----1-------1-------1-----------|-----1-------1-------1-----------|
G|-----0-------0-------0-----------|-----0-------0-------0-----------|
D|-----0-------0-------0-----------|-----0-------0-------0-----------|
A|---------------------------------|---------------------------------|
E|---------------------------------|---------------------------------|
                                     If  I       needed          someone

   A
e|---------------------0-----------|-----3-------2-------0-----------|
B|-----3-------1-------------------|-----------------------------1---|
G|---------2---------------2-------|---------2---------------2-------|
D|-0---------------0---------------|-0---------------0---------------|
A|---------------------------------|---------------------------------|
E|---------------------------------|---------------------------------|

  GUITAR SOLO


   A
e|-----5-------3-------2-------0---|-----2-------3-------2-2-2-2-2---|
B|-----3-------3-------3-------3---|-----3-------3-------3-3-3-3-3---|
G|---------2---------------2-------|---------2---------------2-------|
D|-0---------------0---------------|-0---------------0---------------|
A|---------------------------------|---------------------------------|
E|---------------------------------|---------------------------------|

e|-----5-------3---3---2-------0---|-----2-------3-------2-------0---|
B|-----3-------3---3---3-------3---|-----3-------3-------3-------1---|
G|---------2---------------2-------|---------2---------------2-------|
D|-0---------------0---------------|-0---------------0---------------|
A|---------------------------------|---------------------------------|
E|---------------------------------|---------------------------------|


   G
e|---------------------------------|-3-----------------------3-------|
B|-----------------------------5---|---------------------------------|
G|-----------------------------5---|-5-----------4-----------5-------|
D|---------------------------------|---------------------------------|
A|---------------------------------|---------------------------------|
E|---------------------------------|---------------------------------|


   A
e|---------------------0-----------|-----3-------2-------0-----------|
B|-----3-------1---------------1---|-----3-------3-------3-------0---|
G|---------2---------------2-------|---------2---------------2-------|
D|-0---------------0---------------|-0---------------0---------------|
A|---------------------------------|---------------------------------|
E|---------------------------------|---------------------------------|

  VERSE


   A
e|-------------0-------2-------3---|-----2-------0-------2-----------|
B|-----3---------------------------|-----------------------------3---|
G|---------2---------------2-------|---------2---------------2-------|
D|-0---------------0---------------|-0---------------0---------------|
A|---------------------------------|---------------------------------|
E|---------------------------------|---------------------------------|
   If  I       had     some    more      time    to      spend


e|-------------0-------2-------0---|-----2-------3-------2-------0---|
B|-----3---------------------------|------------------------------1--|
G|---------2---------------2-------|---------2---------------2-----0-|
D|-0---------------0---------------|-0---------------0---------------|
A|---------------------------------|---------------------------------|
E|---------------------------------|---------------------------------|
  Then I       guess   I'd     be        with    you     my      friend

   G
e|---------------------------------|---------------------------------|
B|-------------1---1---1-----------|-1-----------1---1---------------|
G|-------------0---0---0-----------|-0-----------0---0---------------|
D|-------------0---0---0-----------|-0-----------0---0---------------|
A|---------------------------------|---------------------------------|
E|---------------------------------|---------------------------------|
                                     If  I       needed          someone


e|---------------------0-----------|-----3-------2-------0-----------|
B|-----3-------1---------------1--H|-3-------------------------------|
G|---------2---------------2-------|---------2---------------2-------|
D|-0---------------0---------------|-0---------------0---------------|
A|---------------------------------|---------------------------------|
E|---------------------------------|---------------------------------|

  BRIDGE


   Em                                F#7
e|---------------------------------|---------------------------------|
B|-------------1-------1-------1---|-----4-------4-------4-------4---|
G|-------------2-------2-------2---|-----2-------2-------2-------2---|
D|-------------2-------2-------2---|-----4-------4-------4-------4---|
A|-------------3-------3-------3---|-----2-------2-------2-------2---|
E|---------------------------------|---------------------------------|
   Had you     come    some    other             day     then

                                     Bm
e|---------------------------------|---------------------------------|
B|-----4---------------4-----------|-0---0-------0-------0-------0---|
G|-----2---------------2-----------|-0---0-------0-------0-------0---|
D|-----4---------------4-----------|-2---2-------2-------2-------2---|
A|-----2---------------2-----------|-2---2-------2-------2-------2---|
E|---------------------------------|---------------------------------|
   it  may     not     have    been      like    this

   Em                                F#7
e|---------------------------------|---------------------------------|
B|-----1-------1-------1-------1---|-----4-------4-------4-----------|
G|-----2-------2-------2-------2---|-----2-------2-------2-----------|
D|-----2-------2-------2-------2---|-----4-------4-------4-----------|
A|-----3-------3-------3-------3---|-----2-------2-------2-----------|
E|---------------------------------|---------------------------------|
   But you     see     now     I'm       too     much    in      love

   Bm                                E
e|---------------------------------|---------------------------------|
B|-----0-------0-------0-----------|-----2-------3-------2-------0---|
G|-----0-------0-------0-----------|---------------------------------|
D|-----2-------2-------2-----------|---------2---------------2-------|
A|-----2-------2-------2-----------|-0---------------0---------------|
E|---------------------------------|---------------------------------|

  VERSE


   A
e|-------------0-------2-------3---|-----2-------0-------2-----------|
B|-----3---------------------------|-----------------------------3---|
G|---------2---------------2-------|---------2---------------2-------|
D|-0---------------0---------------|-0---------------0---------------|
A|---------------------------------|---------------------------------|
E|---------------------------------|---------------------------------|
 Carve your    number          on        my      wall    and


e|-------------0-------2-------0---|-----2-------3-------2-------0---|
B|-----3---------------------------|------------------------------1--|
G|---------2---------------2-------|---------2---------------2-----0-|
D|-0---------------0---------------|-0---------------0---------------|
A|---------------------------------|---------------------------------|
E|---------------------------------|---------------------------------|
   maybe       you     will    get       a       call    from    me

   G
e|---------------------------------|---------------------------------|
B|-------------1-------1-----------|-----1-------1-------1-----------|
G|-------------0-------0-----------|-----0-------0-------0-----------|
D|-------------0-------0-----------|-----0-------0-------0-----------|
A|---------------------------------|---------------------------------|
E|---------------------------------|---------------------------------|
                                     If  I       needed          someone

   A
e|---------------------0-----------|-----3-------2-------0-----------|
B|-----3-------1---------------1--H|-3---------------------------1---|
G|---------2---------------2-------|---------2---------------2-------|
D|-0---------------0---------------|-0---------------0---------------|
A|---------------------------------|---------------------------------|
E|---------------------------------|---------------------------------|

  OUTRO


   A
e|---------------------0-----------|-----3-------2-------0-----------|
B|-----3-------1---------------1--H|-3---------------------------3---|
G|---------2---------------2-------|---------2---------------2-------|
D|-0---------------0---------------|-0---------------0---------------|
A|---------------------------------|---------------------------------|
E|---------------------------------|---------------------------------|

e|---------------------0-----------|-----3-------2-------0-----------|
B|-----3-------1---------------1--H|-3---------------------------3---|
G|---------2---------------2-------|---------2---------------2-------|
D|-0---------------0---------------|-0---------------0---------------|
A|---------------------------------|---------------------------------|
E|---------------------------------|---------------------------------|

e|---------------------------------|---------------------------------|
B|---3-----------------------------|---------------------------------|
G|--2------------------------------|---------------------------------|
D|-0-------------------------------|---------------------------------|
A|---------------------------------|---------------------------------|
E|---------------------------------|---------------------------------|
comments
We did not receive enough feedback on this tab! Please rate:
print report bad tab
1 2 3 4 5
I want to post or [tab]
guest
You may want to rate the tab now too:
select rating
Please do not post tabs as comments. Select "correction" instead!