Oops, an error
Loading. Please wait.

Ill Be Back Chords

version 6
version 6

Interactive

3,097 views 1 this week
no commentswrite comment
1 2 3 4 5
please rate
add to favorites
launch autoscroll
font size
0
reset
transpose
0
reset
simplify chords
display chords
guitar tuner
Tab Pro tools
  • play this tab
  • loop segment
  • change instrument
  • show fretboard
  • metronome
×
Best way to learn
"Ill Be Back"
Autoscroll
slow
fast
+/-
esc
set tempo
stop
Contributor
Difficulty
novice
INTRO
                                  A        
e-|-----------------------------|-0-|-----------------------------|
b-|--------------5--------------|-2-|-----------------------------|
g-|-----------4-----------------|-2-|-----------------------------|
d-|---------4-------------------|-2-|-----------------------------|
a-|-----------------------------|-0-|-----------------------------|
e-|-----------------------------|-x-|-----------------------------|

VERSE
     Am           C                  F
You know, if you break my heart I'll go
    E        E7    A
But I'll be back again
      Am           G               F
Cause I, told you once before goodbye
 E          E7      A        
But I came back again

CHORUS
           F#m                   Bm
I love you so, I'm the one who wants -you,
                      E    
yes I'm the one who wants you
D   E   D   E
Oh  ho  oh  ho

VERSE
Oh you, could find better things to do
Than to break my heart again
This time, I will try to show that I
Am not trying to pretend

BRIDGE

F#m                      C#m
I thought that you would realize that if I
F#m
ran away from you
     Bm                        E        D        E
That you would want me too but I got a big surprise
D  E  D  E
Oh ho Oh ho


VERSE
   Am                C               F
Oh you, could find better things to do
          E        E7    A
Than to break my heart again
      Am           G               F
This time, I will try to show that I'm
      E    E7     A
Not trying to pretend


BRIDGE
        F#m               Bm
I wanna go, but I hate to leave you
                     E
You know I hate to leave you
D  E  D  E
Oh ho Oh ho


VERSE
Am            C                 F
You, If you break my heart I'll go
      E      E7     A
but I'll be back again


OUTTRO
                                          A   Am  A  Am  
e-|-----------------------------|
b-|--------------5--------------|
g-|-----------4-----------------|
d-|---------4-------------------|
a-|-----------------------------|
e-|-----------------------------|
comments
We did not receive enough feedback on this tab! Please rate:
print report bad tab
1 2 3 4 5
I want to post or [tab]
guest
You may want to rate the tab now too:
select rating
Please do not post tabs as comments. Select "correction" instead!