Oops, an error
Loading. Please wait.

Ill Cry Instead bass

version 2
version 2

Whole song

Interactive

4,061 views 6 this week
no commentswrite comment
1 2 3 4 5
1 last vote to show rating
add to favorites
×
Save as Personal and add changes to this tab that will be seen only by you. Learn more ›
×
You can save this tab as Personal to edit and correct it or add notes. All changes will be seen only by you. Learn more »
launch autoscroll
font size
0
reset
guitar tuner
edit
Autoscroll
slow
fast
+/-
esc
set tempo
stop
Author
I'll Cry Instead
The Beatles
Written by John Lennon and Paul McCartney; released on "A Hard Day's Night" 
album

This is a kind of a country song, they wanted it to the film "A Hard Day's 
Night" instead of "Can't Buy Me Love", and put a verse to the end of the 
song to lenghten it. But on the album "A Hard Day's Night" you find the 
original version.

Intro:
G|------- ------- ------- -------|------- ------- ------- -------|
D|-------------------------------|----------------------------3-/|
A|-------------------------------|-------------------------------|
E|-------------------------------|-------------------------------|



G|------- ------- ------- -------|------- ------- ------- -------|
D|5------------------------------|5------------------------------|
A|-------------------------------|-------------------------------|
E|-------------------------------|-------------------------------|
                                                      I've got

Verse:
G|------- ------- ------- -------|------- ------- ------- -------|
D|5-----------------------3------|5-----------------------3------|
A|----------------5--------------|----------------5--------------|
E|-------------------------------|-------------------------------|
  eve  -  ry      reason  on  earth               to  be      mad,


G|------- ------- ------- -------|------- ------- ------- -------|
D|5-----------------------3------|5-----------------------5------|
A|----------------5--------------|----------------5--------------|
E|-------------------------------|-------------------------------|
                                                              Cause


G|------- ------- ------- -------|------- ------- ------- -------|
D|5-------5---------------5------|5-------5-------5-\-4---2------|
A|----------------5--------------|-------------------------------|
E|-------------------------------|-------------------------------|
  I've    just    lost    the on    -     ly      girl I've   had


G|------- ------- ------- -------|------- ------- ------- -------|
D|-------------------------------|-------------------------------|
A|5-----------------------3------|5-----------------------5------|
E|----------------5--------------|----------------5--------------|
                                                          If  I


G|------- ------- ------- -------|------- ------- ------- -------|
D|----------------5-------5------|----------------5-------5------|
A|3------------------------------|3-------3----------------------|
E|-------------------------------|-------------------------------|
          could   get my      way,                            I'd


G|------- ------- ------- -------|------- ------- ------- -------|
D|----------------5-------5------|------------------------3------|
A|3-------3----------------------|3-------3-------5--------------|
E|-------------------------------|-------------------------------|
  get     my  -   self    locked  up  to  -   day,    But I   can't,


G|------- ------- ------- -------|------- ------- ------- -------|
D|5-----------------------5------|----------------7--------------|
A|----------------5--------------|5-------5---------------5------|
E|-------------------------------|-------------------------------|
                      so  I'll cry                            in-


G|------- ------- ------- -------|------- ------- ------- -------|
D|5------------------------------|5-----------------------4------|
A|----------------5--------------|--------5-------7--------------|
E|-------------------------------|-------------------------------|
      stead                                           I've got a

Verse:
G|------- ------- ------- -------|------- ------- ------- -------|
D|5------------------------------|5------------------------------|
A|----------------5--------------|----------------5--------------|
E|-------------------------------|-------------------------------|
  chip    on  my  shoulder that's bigger      than    my      feet,


G|------- ------- ------- -------|------- ------- ------- -------|
D|5------------------------------|5-----------------------3------|
A|----------------5--------------|----------------5--------------|
E|-------------------------------|-------------------------------|
                                                              I


G|------- ------- ------- -------|------- ------- ------- -------|
D|5------------------------------|5---------------4-------2------|
A|----------------5--------------|-------------------------------|
E|-------------------------------|-------------------------------|
          can't   talk    to  peo   -     ple     that I      meet


G|------- ------- ------- -------|------- ------- ------- -------|
D|-------------------------------|-------------------------------|
A|5------------------------------|5-----------------------5------|
E|----------------5--------------|----------------5--------------|
                                                          If  I


G|------- ------- ------- -------|------- ------- ------- -------|
D|-------------------------------|-------------------------------|
A|3------------------------------|3-----------------------3------|
E|----------------3--------------|----------------3--------------|
          could   see     you now,                            I'd


G|------- ------- ------- -------|------- ------- ------- -------|
D|-------------------------------|--------2-------3-------5------|
A|3-----------3------------------|3------------------------------|
E|----------------3--------------|-------------------------------|
  try     to  make    you     sad         somehow,    But I   can't,


G|------- ------- ------- -------|------- ------- ------- -------|
D|5-----------------------5------|----------------7--------------|
A|----------------5--------------|5-----------------------5------|
E|-------------------------------|-------------------------------|
                      so  I'll cry                            in-


G|------- ------- ------- -------|------- ------- ------- -------|
D|5------------------------------|5------------------------------|
A|----------------5--------------|----------------5--------------|
E|-------------------------------|------------------------8------|
      stead                                   Don't   wan  -  na

Bridge:
G|------- ------- ------- -------|------- ------- ------- -------|
D|-------------------------------|-------------------------------|
A|----------------9--------------|----------------9--------------|
E|7------------------------------|7-----------------------7------|
  cry     when    people      there,                      I   get
              there's

G|------- ------- ------- -------|------- ------- ------- -------|
D|-------------------------------|-------------------------------|
A|----------------7--------------|----------------7-------6------|
E|5------------------------------|5------------------------------|
  shy     when    start   to  stare,                          I'm
              they

G|------- ------- ------- -------|------- ------- ------- -------|
D|-------------------------------|-------------------------------|
A|5------------------------------|5-----------------------5------|
E|----------------5--------------|----------------5--------------|
  gonna   hide myself     a - way,            hey,            but


G|------- ------- 4------ -------|------- ------- ------- -------|
D|-------------------------------|7------------------------------|
A|7------------------------------|----------------5--------------|
E|-------------------------------|-------------------------------|
  I'll    come    back,       a - gain,   some day,   And when I

Verse:
G|------- ------- ------- -------|------- ------- ------- -------|
D|5-----------------------5------|5-----------------------3------|
A|----------------5--------------|----------------5--------------|
E|-------------------------------|-------------------------------|
  do,     you'd   better      hide                all     the girls,


G|------- ------- ------- -------|------- ------- ------- -------|
D|5------------------------------|5-----------------------3------|
A|----------------5--------------|----------------5--------------|
E|-------------------------------|-------------------------------|
                                                              Cause


G|------- ------- ------- -------|------- ------- ------- -------|
D|5------------------------------|5---------------5-\-4---2------|
A|----------------5--------------|-------------------------------|
E|-------------------------------|-------------------------------|
  I'm     gonna   break their hearts      all     'round  the world,


G|------- ------- ------- -------|------- ------- ------- -------|
D|-------------------------------|-------------------------------|
A|5---------------------------3--|5-----------------------5------|
E|----------------5--------------|----------------5--------------|
                                                      Yes,    I'm


G|------- ------- ------- -------|------- ------- ------- -------|
D|----------------5--------------|----------------5--------------|
A|3------------------------------|3------------------------------|
E|-------------------------------|-------------------------------|
          gonna   break   in  two,                            and
                      them

G|5------ 3------ ------- -------|------- ------- ------- -------|
D|----------------5-------3------|-------------------------------|
A|-------------------------------|5-------3----------------------|
E|-------------------------------|----------------6-\-5---5------|
  show    what    loving      man         can do,     Until   then,
      you     your

G|------- ------- ------- -------|------- ------- ------- -------|
D|-------------------------------|---------------/7--------------|
A|----------------5--------------|5-----------------------5------|
E|3-----------------------3------|-------------------------------|
                          I'll cry                            in-


G|------- ------- ------- -------|------- ------- ------- -------|
D|5------------------------------|5---------------4--------------|
A|----------------5--------------|------------------------7------|
E|-------------------------------|-------------------------------|
      stead                                   Don't   wan  -  na

Bridge:
G|------- ------- ------- -------|------- ------- ------- -------|
D|-------------------------------|-------------------------------|
A|----------------9--------------|----------------9--------------|
E|7------------------------------|7-----------------------7------|
  cry     when    people      there,                      I   get
              there's

G|------- ------- ------- -------|------- ------- ------- -------|
D|-------------------------------|-------------------------------|
A|----------------7--------------|----------------7-------6------|
E|5------------------------------|5------------------------------|
  shy     when    start   to  stare,                          I'm
              they

G|------- ------- ------- -------|------- ------- ------- -------|
D|-------------------------------|-------------------------------|
A|5------------------------------|5-----------------------5------|
E|----------------5--------------|----------------5--------------|
  gonna   hide myself     a - way,            hey,            but


G|------- ------- ------- -------|------- ------- ------- -------|
D|----------------9-------8------|7------------------------------|
A|7------------------------------|----------------5-------5------|
E|-------------------------------|-------------------------------|
  I'll    come    back,       a - gain,   some day,   And when I

Verse:
G|------- ------- ------- -------|------- ------- ------- -------|
D|5-----------------------4------|5-----------------------4------|
A|----------------5--------------|----------------5--------------|
E|-------------------------------|-------------------------------|
  do,     you'd   better      hide                all     the girls,


G|------- ------- ------- -------|------- ------- ------- -------|
D|5-----------------------4------|5-----------------------4------|
A|----------------5--------------|----------------5--------------|
E|-------------------------------|-------------------------------|
                                                              I'm


G|------- ------- ------- -------|------- ------- ------- -------|
D|5-----------------------4------|5---------------4-------2------|
A|----------------5--------------|-------------------------------|
E|-------------------------------|-------------------------------|
          gonna   break their hearts      all     'round  the world,


G|------- ------- ------- -------|------- ------- ------- -------|
D|-------------------------------|-------------------------------|
A|5------------------------------|5-----------------------5------|
E|----------------5--------------|------------5---5--------------|
                                                      Yes,    I'm


G|------- ------- ------- -------|------- ------- ------- -------|
D|-------------------------------|-------------------------------|
A|3------------------------------|3------------------------------|
E|----------------3--------------|----------------3--------------|
          gonna   break   in  two,                            and
                      them

G|5------ 3------ ------- -------|------- ------- ------- -------|
D|----------------5-------3------|-------------------------------|
A|-------------------------------|5-------3----------------------|
E|-------------------------------|----------------6-------3------|
  show    what    loving      man         can do,     Until   then,
      you     your

G|------- ------- ------- -------|------- ------- ------- -------|
D|-------------------------------|-------------------------------|
A|----------------5--------------|5-----------5-----------5------|
E|3-----------------------3------|----------------5--------------|
                          I'll cry                            in-


G|------- ------- ------- -------|------- ------- ------- -------|
D|5------------------------------|5------------------------------|
A|----------------5--------------|-------------------------------|
E|-------------------------------|-------------------------------|
      stead

Please e-mail me for any corrections.
Suggest correction
Creating personal tab
Creating personal tab
You can edit any tab online and save it as your Personal.

You can edit, replace or remove any tab part or add personal notes – all changes will be seen only by you.

Personal tabs can be accessed anytime from any device, even offline.
Learn more »
Give kudos to tab author, rate the tab!
1 2 3 4 5
comments
print report bad tab
guest
You may want to rate the tab now too:
select rating
Wanna post a correction for this tab? Suggest correction