Oops, an error
Loading. Please wait.

Ill Follow The Sun Tab

version 1
version 1

Whole song

Interactive

63,999 views 54 this week
4 commentsread comments
1 2 3 4 5
excellent!
x 15
add to favorites
launch autoscroll
font size
0
reset
how to read this tab
guitar tuner
Tab Pro tools
  • play this tab
  • loop segment
  • change instrument
  • show fretboard
  • metronome
×
Best way to learn
"Ill Follow The Sun"
Autoscroll
slow
fast
+/-
esc
set tempo
stop
Contributor
  -------------------------------------------------------------------

  THE BEATLES - I'LL FOLLOW THE SUN (Lennon & McCartney) From BEATLES 
                FOR SALE album. Released on December 4th 1964.

  -------------------------------------------------------------------

  Tabbed by:PJVillanueva




  One day you'll look to see I've gone.
  For tomorrow may rain, so I'll follow the sun.
  Some day you'll know I was the one.
  But tomorrow may rain, so I'll follow the sun.
  And now the time has come
  And so my love I must go.
  And though I lose a friend,
  In the end you'll know, oooh.
  One day you'll find that I have gone.
  For tomorrow may rain, so I'll follow the sun.
  Yes, tomorrow may rain, so I'll follow the sun.
  And now the time has come
  And so my love I must go.
  And though I lose a friend,
  In the end you'll know, oooh.
  One day you'll find that I have gone.
  For tomorrow may rain, so I'll follow the sun.



  C                           F             C
e|------ ---0-- ------ ------|------ ---0-- ------ ------|
B|1------1--1------1------1--|1------1---------1------0--|
G|0--0------0-------------0--|2--2-------------0------0--|
D|2---------2-------------2--|3----------------2------0--|
A|3---------3-------------3--|-----------------3---------|
E|---------------------------|---------------------------|

e|------ ------ ------ ------|------ ------ ------ ------|
B|1------1------3------3-----|1------1------1------1-----|
G|---0------0------0------0--|---2------2------0------0--|
D|---------------------------|---------------------------|
A|---------------------------|---------------------------|
E|---------------------------|---------------------------|



  G                           F
e|3----- ---3-- ---3-- 3-----|1----- ---1-- ---1-- 1-----| 
B|3---------3------3---3-----|1---------1------1---1--0--|
G|4---------4------4---4-----|2---------2------2---2--0--|
D|5---------5------5---5-----|3---------3------3---3--0--|
A|5---------5------5---5-----|3---------3------3---3-----|
E|3---------3------3---3-----|1---------1------1---1-----|
  One       day               you'll    look 


  C                       D                           C
e|------ ------ ------ ---2--|------ ---2-- ------ ---0--|
B|1---------1------1------3--|----------3------3------1--|
G|0---------0------0------2--|----------2------2------0--|
D|2---------2------2---------|0-------------0------------|
A|3---------3------3---------|---------------------------|
E|3---------3------3---------|---------------------------|
         to     see       gone.                    For                  
                   I've                               tomorrow


            Em            D7            G
e|------ ---0-- ---0-- ---2--|---2-- ------ ------ ---0--|
B|---1------0------0------1--|---1------0------3---------|
G|---0------0------0------2--|---2------0------0---------|
D|---2-----------------------|0---------0------0---------|
A|3-------------2------------|---------------------------|
E|---------------------------|--------------3------------| 
         may           so            I'll   follow    the 
            rain


     C                           F          C
e|------ ------ ---0-- ------|---1-- ------ ---0-- ------|  
B|---1------1------1------1--|---1------0-H-1--1---------|
G|---0------0------0------0--|---2------0------0---------|
D|---2------2------2------2--|---3------0----------------|
A|---3------3------3------3--|--------------3------------|
E|---------------------------|---------------------------|

e|------ ------ ------ ------|------ ------ ------ ------|
B|1------1------3------3-----|1------1------1------1-----|
G|---0------0------0------0--|---2------2------0------0--|
D|---------------------------|---------------------------|
A|---------------------------|---------------------------|
E|---------------------------|---------------------------|
  sun


  G                           F
e|3----- ---3-- ---3-- 3-----|1----- ---1-- ---1-- 1-----|
B|3---------3------3---3-----|1---------1------1---1--0--|
G|4---------4------4---4-----|2---------2------2---2--0--|
D|5---------5------5---5-----|3---------3------3---3--0--|
A|5---------5------5---5-----|3---------3------3---3-----|
E|3---------3------3---3-----|1---------1------1---1-----|
  Some      day               you'll    know 

  C                       D                           C
e|------ ------ ------ ---0--|------ ---2-- ------ ---0--|
B|1---------1------1------3--|----------3------3------1--|
G|0---------0------0------2--|----------2------2------0--|
D|2---------2------2------0--|----------0------0---------|
A|3---------3------3---------|---------------------------|
E|3---------3------3---------|---------------------------|
         I      was    the                         But 
                          one                         tomorrow

            Em            D7            G
e|------ ---0-- ---0-- ---2--|---2-- ---3-- ---3-- ------|
B|---1------0------0------1--|---3------3------3------0--|
G|---0------0------0------2--|---2------0------0------0--|
D|---2-----------------------|0---------0------0------0--|
A|3-------------2------------|---------------------------|
E|---------------------------|--------------3------------|
         may           so            I'll   follow    the 
            rain


     C                    C7
e|------ ---0-- ------ ------|------ ------ ------ ------|
B|---1------1------1------1--|---1------1------1---1-----|
G|---0------0------0------3--|---3------3------3---3-----|
D|---2-------------2------2--|---2------2------2---2-----|
A|---3-------------3------3--|---3------3------3---3-----|
E|---------------------------|---------------------------|
  sun                                And    now    the 


  Dm                          Fm6
e|1----- ---1-- ---1-- 1-----|1----- ---1-- ---1-- 1-----|
B|3---------3------3---3-----|3---------3------3---3-----|
G|2---------2------2---2-----|1---------1------1---1-----|
D|0---------0------0---0-----|3---------3------3---3-----|
A|---------------------------|3---------3------3---3-----|
E|---------------------------|1---------1------1---1-----|
  time      come          and so     my love   I   must 
     has                                              go


  C                       C7
e|------ ------ ---0-- ------|------ ------ ------ ------|
B|1---------1------1------1--|----------1------1---1-----|
G|0---------0------0------3--|----------3------3---3-----|
D|2---------2-------------2--|----------2------2---2-----|
A|3---------3-------------3--|----------3------3---3-----|
E|---------------------------|---------------------------|
                                     And    though I


  Dm                          Fm6
e|1----- ---1-- ---1-- ------|1----- ---1-- ---1-- 1-----|
B|3---------3------3---------|3---------3------3---3-----|
G|2---------2------2---------|1---------1------1---1-----|
D|0---------0------0---------|3---------3------3---3-----|
A|---------------------------|3---------3------3---3-----|
E|---------------------------|1---------1------1---1-----|
  lose   a  friend            in     the       you will 
                                        end           know


  C                           Dm
e|------ ------ ------ ------|1----- ---1-- ---1-- 1-----|
B|1---------1------1------1--|3---------3------3---3-----|
G|0---------0------0------0--|2---------2------2---2-----|
D|2---------2------2------2--|0---------0------0---0-----|
A|3---------3------3------3--|---------------------------|
E|---------------------------|---------------------------|
                              Ooooooooooooooooooooooohhh


  G                           F
e|3----- ---3-- ---3-- 3-----|1----- ---1-- ---1-- 1-----|
B|3---------3------3---3-----|1---------1------1---1--0--|
G|4---------4------4---4-----|2---------2------2---2--0--|
D|5---------5------5---5-----|3---------3------3---3--0--|
A|5---------5------5---5-----|3---------3------3---3-----|
E|3---------3------3---3-----|1---------1------1---1-----|
  One       day               you'll    find 


  C                       D                           C
e|------ ---0-- ------ ------|------ ---2-- ------ ---0--|
B|1---------1------1------3--|----------3------3------1--|
G|0---------0------0------2--|----------2------2------0--|
D|2---------2------2------0--|----------0------0---------|
A|3---------3------3---------|---------------------------|
E|3---------3------3---------|---------------------------|
         that   I have    gone                     But 
                                                      tomorrow

            Em            D7            G
e|------ ---0-- ---0-- ---2--|---2-- ------ ------ ------|
B|---1------0------0------1--|---1------0------3------0--|
G|---0------0------0------2--|---2------0------0------0--|
D|---2-----------------------|0---------0------0------0--|
A|3-------------2------------|---------------------------|
E|---------------------------|--------------3------------|
         may           so            I'll   follow    the 
            rain

  C                       F             C             G
e|------ ------ ---0-- ---0--|---0-- ------ ------ ------|
B|1---------1------1------1--|---1------1------1------0--|
G|0---------0------0------2--|---2------0------0------0--|
D|2---------2-------------3--|---3------2------2------0--|
A|3---------3------3---------|----------3------3---------|
E|---------------------------|---------------------------|
  sun
e|------ ------ ------ ------|------ ------ ------ ------|
B|1------1------3------3-----|1------1------1------1-----|
G|---0------0------0------0--|---2------2------0------0--|
D|---------------------------|---------------------------|
A|---------------------------|---------------------------|
E|---------------------------|---------------------------| 



  G                              F9
e|3----- ---3-- ---3-- ---3--|---3-- ---3-- ---3-- 3--3--|
B|3---------3------3------3--|---1------1------1---1--1--|  
G|0---------0------0------0--|---2------2------2---2--2--|
D|0---------0------0------0--|---1------1------1---1--1--|
A|2---------2------2------2--|---3------3------3---3--3--|
E|3---------3------3------3--|---1------1------1---1--1--|

e|------ ------ ------ ------|------ ------ ------ ------|
B|3------/------8------------|4------/------10-----------|
G|---------------------------|---------------------------|
D|---------------------------|---------------------------|
A|---------------------------|---------------------------|
E|---------------------------|---------------------------|
  

     C                    D                           C
e|------ ---3-- ------ ---2--|---2-- ---2-- ---2-- ---0--|
B|---1------1------1------3--|---3------3------3------1--|
G|---0------0------0------2--|---2------2------2------0--|
D|---2------2------2------0--|---0------0------0---------|
A|---3------3------3---------|---------------------------|
E|---------------------------|---------------------------|
 
e|------ ------ ------ ------|------ ------ ------ ------|
B|-------8---/--13-----12---/|15-------------------------|
G|---------------------------|---------------------------|
D|---------------------------|---------------------------|
A|---------------------------|---------------------------|
E|---------------------------|---------------------------|
                                                   But 
                                                      tomorrow

            Em            D7            G
e|------ ---0-- ---0-- ---2--|---2-- ------ ------ ------|
B|---1------0------0------1--|---1------0------3------0--|
G|----------0------0------2--|---2------0------0------0--|
D|-------2-------------------|0---------0------0------0--|
A|3-------------2------------|---------------------------|
E|---------------------------|--------------3------------|
         may rain      so            I'll   follow    the


     C                    C7
e|------ ---0-- ------ ------|------ ------ ------ ------|
B|---1------1------1---------|---1------1------1------1--|
G|---0------0------0------3--|---3------3------3------3--|
D|---2-------------2------2--|---2------2------2------2--|
A|---3-------------3------3--|---3------3------3------3--|
E|---------------------------|---------------------------|
  sun                                And    now    the



  Dm                          Fm6
e|1----- ---1-- ---1-- 1-----|1----- ---1-- ---1-- 1-----|
B|3---------3------3---3-----|3---------3------3---3-----|
G|2---------2------2---2-----|1---------1------1---1-----|
D|0---------0------0---0-----|3---------3------3---3-----|
A|---------------------------|3---------3------3---3-----|
E|---------------------------|1---------1------1---1-----|
  time      come          and so     my love   I   must 
     has                                              go

  C                       C7    
e|------ ---0-- ------ ------|------ ------ ------ ------|
B|1---------1------1---------|----------1------1---1-----|
G|0---------0------0------3--|----------3------3---3-----|
D|2---------2------2------2--|----------2------2---2-----|
A|3---------3------3------3--|----------3------3---3-----|
E|---------------------------|---------------------------|
                                     And    though I


  Dm                          Fm6
e|1----- ---1-- ---1-- ------|1----- ---1-- ---1-- 1-----|
B|3---------3------3---------|3---------3------3---3-----|
G|2---------2------2---------|1---------1------1---1-----|
D|0---------0------0---------|3---------3------3---3-----|
A|---------------------------|3---------3------3---3-----|
E|---------------------------|1---------1------1---1-----|
  lose   a  friend            in     the       you'll 
                                        end

  C                           Dm
e|------ ---0-- ------ ------|------ ---1-- ---1-- 1-----|
B|1---------1------1------0--|3---------3------3---3-----|
G|0---------0------0------0--|2---------2------2---2-----|
D|2---------2------2------2--|0---------0------0---0-----|
A|3---------3------3------3--|---------------------------|
E|---------------------------|---------------------------|  
  know                        Ooooooooooooooooooooooohhh
 
  G                           F
e|3----- ---3-- ---3-- 3-----|1----- ---1-- ---1-- 1-----|
B|3---------3------3---3-----|1---------1------1---1--0--|
G|4---------4------4---4-----|2---------2------2---2--0--|
D|5---------5------5---5-----|3---------3------3---3--0--|
A|5---------5------5---5-----|3---------3------3---3-----|
E|3---------3------3---3-----|1---------1------1---1-----|
  One       day               you'll    find 


  C                       D                           C
e|------ ---0-- ------ ------|------ ---2-- ------ ---0--|
B|1---------1------1------3--|----------3------3------1--|
G|0---------0------0------2--|----------2------2------0--|
D|2---------2------2------0--|----------0------0---------|
A|3---------3------3---------|---------------------------|
E|3---------3------3---------|---------------------------|
         that   I  have   gone                     But 
                                                      tomorrow


            Em            D7            G
e|------ ---0-- ------ ---2--|---2-- ------ ------ ------|
B|---1------0------0------1--|---1------0------3------0--|
G|----------0------0------2--|---2------0------0------0--|
D|-------2-------------2-----|0---------0------0------0--|
A|3-------------2------------|---------------------------|
E|---------------------------|--------------3------------|
         may rain      so            I'll   follow    the 

                                            (.
     C                           F          C
e|------ ------ ---0-- ------|---0-- ------ ------ ------|
B|---1------1------1------1--|---1----------1------------|
G|---0------0------0------0--|---2----------0------------|
D|---2------2-------------2--|---3----------2------------|
A|---3------3-------------3--|--------------3------------|
E|---------------------------|--------------3------------|

e|------ ------ ------ ------|------ ------ ------ ------|
B|1------1------3------3-----|1------1------1------------|
G|---0------0------0------0--|---2------2----------------|
D|---------------------------|---------------------------|
A|---------------------------|---------------------------|
E|---------------------------|---------------------------| 
  sun




        B  Bend
        R  Release
        /  slide up
        \  slide down
        H  hammer-on
        P  pull-off
        ~  vibrato
        +  harmonic
        x  Mute note
        . - play note like a dot in standard notation
        ^ - ties two notes together
        (. Pause


comments
print report bad tab
4 comments total. Showing first comments.
0 reply
Mean Mr Mustard wrote on September 15 2007, 03:19 pm

who'd ever think that a solo that short can be so melodic? It fits perfectly with the song. Great tab by the way.

0 reply
froglog09 wrote on February 8 2008, 12:19 am

great!

+1 reply
maguri wrote on December 19 2013, 05:31 pm

Very, very good overall!

One small suggestion: I think the electric guitar plays three strings not two. To me it is something like this:


C F C G
e|------ ------ ------ ------|------ ------ ------ ------|
B|1------1------3------3-----|1------1------1------1-----|0
G|---0------0------0------0--|---2------2------0------0--|
D|2------2------3------3-----|3------3------2------2-----|0
A|---------------------------|---------------------------|
E|---------------------------|---------------------------|


What do you think?

I want to post or [tab]
guest
You may want to rate the tab now too:
select rating
Please do not post tabs as comments. Select "correction" instead!