Oops, an error
Loading. Please wait.
We have an official Ill Follow The Sun tab made by UG professional guitarists. Check out the tab »
×
4,671 views 3 this week
no commentswrite comment
1 2 3 4 5
x 3
add to favorites
×
Save as Personal and add changes to this tab that will be seen only by you. Learn more ›
×
You can save this tab as Personal to edit and correct it or add notes. All changes will be seen only by you. Learn more »
launch autoscroll
font size
0
reset
guitar tuner
backing track
0:00
0:00
edit
Autoscroll
slow
fast
+/-
esc
set tempo
stop
Author
I'll Follow The Sun
The Beatles
Written by John Lennon and Paul McCartney; released on "Beatles For Sale" 
album

This song was written long before it was released, and sounded quite 
different. Paul re-wrote it for the "Beatles For Sale" album.

Intro:
G|------- ------- ------- -------|------- ------- ------- -------|
D|-------------------------------|3------------------------------|
A|3------------------------------|----------------3--------------|
E|----------------3--------------|-------------------------------|


Verse:
G|------- ------- ------- -------|------- ------- ------- -------|
D|5------------------------------|3------------------------------|
A|----------------5--------------|----------------3--------------|
E|-------------------------------|-------------------------------|
  One         day,                you'll      look


G|------- ------- ------- -------|------- ------- ------- -------|
D|----------------5--------------|----------------7--------------|
A|3------------------------------|5------------------------------|
E|-------------------------------|-------------------------------|
          to      see I've    gone,                       But to-


G|------- ------- ------- -------|------- ------- ------- -------|
D|-------------------------------|----------------5--------------|
A|-------------------------------|5------------------------------|
E|8---------------7--------------|-------------------------------|
  morrow  may rain,       so,             I'll    follow      the


G|------- ------- ------- -------|------- ------- ------- -------|
D|-------------------------------|3------------------------------|
A|3------------------------------|----------------3--------------|
E|----------------3--------------|-------------------------------|
  Sun

Verse:
G|------- ------- ------- -------|------- ------- ------- -------|
D|5------------------------------|3------------------------------|
A|----------------5--------------|----------------3--------------|
E|-------------------------------|-------------------------------|
  Some        day,                you'll      know:


G|------- ------- ------- -------|------- ------- ------- -------|
D|----------------5--------------|----------------7--------------|
A|3------------------------------|5------------------------------|
E|-------------------------------|-------------------------------|
          I       was     the one,                        But to-


G|------- ------- ------- -------|------- ------- ------- -------|
D|-------------------------------|----------------5--------------|
A|-------------------------------|5------------------------------|
E|8---------------7--------------|-------------------------------|
  morrow  may rain,       so,             I'll    follow      the


G|------- ------- ------- -------|------- ------- ------- -------|
D|-------------------------------|-------------------------------|
A|3------------------------------|3------------------------------|
E|----------------3--------------|----------------3--------------|
  Sun                                     And     now     the

Bridge:
G|------- ------- ------- -------|------- ------- ------- -------|
D|----------------7--------------|3------------------------------|
A|5------------------------------|----------------3--------------|
E|-------------------------------|-------------------------------|
  time    has come,           and so      my  love,   I   must go


G|------- ------- ------- -------|------- ------- ------- -------|
D|-------------------------------|-------------------------------|
A|3------------------------------|3------------------------------|
E|----------------3--------------|----------------3--------------|
                                          And     though  I


G|------- ------- ------- -------|------- ------- ------- -------|
D|----------------7--------------|3------------------------------|
A|5------------------------------|----------------3--------------|
E|-------------------------------|-------------------------------|
  lose    a   friend,             in      the end     you will know,


G|------- ------- ------- -------|------- ------- ------- -------|
D|-------------------------------|-------------------------------|
A|3------------------------------|5---------------5--------------|
E|----------------3--------------|-------------------------------|
                                  oh!

Verse:
G|------- ------- ------- -------|------- ------- ------- -------|
D|5------------------------------|3------------------------------|
A|----------------5--------------|----------------3--------------|
E|-------------------------------|-------------------------------|
  One         day,                you'll      find


G|------- ------- ------- -------|------- ------- ------- -------|
D|----------------5--------------|----------------7--------------|
A|3------------------------------|5------------------------------|
E|-------------------------------|-------------------------------|
          that    I   have    gone,                       But to-


G|------- ------- ------- -------|------- ------- ------- -------|
D|-------------------------------|----------------5--------------|
A|-------------------------------|5------------------------------|
E|8---------------7--------------|-------------------------------|
  morrow  may rain,       so,             I'll    follow      the


G|------- ------- ------- -------|------- ------- ------- -------|
D|----------------5--------------|3------------------------------|
A|3---------------------------3--|----------------3--------------|
E|-------------------------------|-------------------------------|
  Sun

Verse (half-solo):
G|------- ------- ------- -------|------- ------- ------- -------|
D|5---------------------------3--|3------------------------------|
A|----------------5--------------|----------------3--------------|
E|-------------------------------|-------------------------------|



G|------- ------- ------- -------|------- ------- ------- -------|
D|----------------5--------------|----------------7--------------|
A|3------------------------------|5------------------------------|
E|-------------------------------|-------------------------------|
                                                          Yeah, to-


G|------- ------- ------- -------|------- ------- ------- -------|
D|-------------------------------|----------------5--------------|
A|-------------------------------|5------------------------------|
E|8---------------7--------------|-------------------------------|
  morrow  may rain,       so,             I'll    follow      the


G|------- ------- ------- -------|------- ------- ------- -------|
D|-------------------------------|-------------------------------|
A|3------------------------------|3------------------------------|
E|----------------3--------------|----------------3--------------|
  Sun                                     And     now     the

Bridge:
G|------- ------- ------- -------|------- ------- ------- -------|
D|----------------7--------------|3------------------------------|
A|5------------------------------|----------------3--------------|
E|-------------------------------|-------------------------------|
  time    has come,           and so      my  love,   I   must go


G|------- ------- ------- -------|------- ------- ------- -------|
D|-------------------------------|-------------------------------|
A|3------------------------------|3------------------------------|
E|----------------3--------------|----------------3--------------|
                                          And     though  I


G|------- ------- ------- -------|------- ------- ------- -------|
D|----------------7--------------|3------------------------------|
A|5------------------------------|----------------3--------------|
E|-------------------------------|-------------------------------|
  lose    a   friend,             in      the end     you will know,


G|------- ------- ------- -------|------- ------- ------- -------|
D|-------------------------------|-------------------------------|
A|3------------------------------|5------------------------------|
E|----------------3--------------|----------------5--------------|
                                  oh!

Verse:
G|------- ------- ------- -------|------- ------- ------- -------|
D|5------------------------------|3------------------------------|
A|----------------5--------------|----------------3--------------|
E|-------------------------------|-------------------------------|
  One         day,                you'll      find


G|------- ------- ------- -------|------- ------- ------- -------|
D|-------------------------------|----------------7--------------|
A|3------------------------------|5------------------------------|
E|----------------3--------------|-------------------------------|
          that    I   have    gone,                       But to-


G|------- ------- ------- -------|------- ------- ------- -------|
D|-------------------------------|----------------5--------------|
A|-------------------------------|5------------------------------|
E|8---------------7--------------|-------------------------------|
  morrow  may rain,       so,             I'll    follow      the


G|------- ------- ------- -------|------- ------- ------- -------|
D|-------------------------------|3------------------------------|
A|3------------------------------|----------------3--------------|
E|----------------3--------------|-------------------------------|
  Sun

Please e-mail me for any corrections.
Suggest correction
Creating personal tab
Creating personal tab
You can edit any tab online and save it as your Personal.

You can edit, replace or remove any tab part or add personal notes – all changes will be seen only by you.

Personal tabs can be accessed anytime from any device, even offline.
Learn more »
Give kudos to tab author, rate the tab!
1 2 3 4 5
comments
print report bad tab
guest
You may want to rate the tab now too:
select rating
Wanna post a correction for this tab? Suggest correction